Song name
# A B C D E F G H I J K L M N O P Q R S T U V W X Y Z

The Prize Fighter Inferno - Easter tab

Easter by the Prize Fighter Inferno

tabbed by Atomfest
tuning Drop-D, 1\2 step down, low to high [Db, Ab, db, Gb, Bb, eb]


Intro: 4/4 time
e|---------|-------|--------|--------|
B|---------|-------|--------|--------|
G|-----0---|---0~--|---0~---|---0~---|   2 times
D|------44~|-----4~|-----4~-|-----4~-|
A|0h555----|5~~----|5~~-----|5~~-----|
D|---------|-------|--------|--------|

Verse
e|----------------|----------------|----------------|----------------|
B|----------------|----------------|----------------|----------------|
G|--------0-------|------0~~~~~----|------0~~~~~----|------0~~~~~----|  4 times
D|----------4-4~~~|------------4~~~|------------4~~~|------------4~~~|
A|0h5-5-5---------|5~~~~~----------|5~~~~~----------|5~~~~~----------|
D|----------------|----------------|----------------|----------------|

Chorus
e|----------------|----------------|---------|-------|--------|--------|
B|----------------|----------------|---------|-------|--------|--------|
G|----------------|----------------|-----0---|---0~--|---0~---|---0~---|
D|-----7~~-----7--|--7------7------|------44~|-----4~|-----4~-|-----4~-|
A|--------5~~----5|----5-------5---|0h555----|5~~----|5~~-----|5~~-----|
D|0h555------5----|5------5--------|---------|-------|--------|--------|

e|----------------|----------------|---------|-------|--------|--------|--------|
B|----------------|----------------|---------|-------|--------|--------|--------|
G|----------------|----------------|-----0---|---0~--|---0~---|---0~---|--------|
D|-----7~~-----7--|--7------7------|------44~|-----4~|-----4~-|-----4~-|4~~~~~~~|
A|--------5~~----5|----5-------5---|0h555----|5~~----|5~~-----|5~~-----|--------|
D|0h555------5----|5------5--------|---------|-------|--------|--------|--------|

Verse
e|----------------|----------------|----------------|----------------|
B|----------------|----------------|----------------|----------------|
G|--------0-------|------0~~~~~----|------0~~~~~----|------0~~~~~----|  4 times
D|----------4-4~~~|------------4~~~|------------4~~~|------------4~~~|
A|0h5-5-5---------|5~~~~~----------|5~~~~~----------|5~~~~~----------|
D|----------------|----------------|----------------|----------------|

Chorus
e|----------------|----------------|---------|-------|--------|--------|
B|----------------|----------------|---------|-------|--------|--------|
G|----------------|----------------|-----0---|---0~--|---0~---|---0~---|
D|-----7~~-----7--|--7------7------|------44~|-----4~|-----4~-|-----4~-|
A|--------5~~----5|----5-------5---|0h555----|5~~----|5~~-----|5~~-----|
D|0h555------5----|5------5--------|---------|-------|--------|--------|

e|----------------|----------------|---------|-------|--------|--------|--------|
B|----------------|----------------|---------|-------|--------|--------|--------|
G|----------------|----------------|-----0---|---0~--|---0~---|---0~---|--------|
D|-----7~~-----7--|--7------7------|------44~|-----4~|-----4~-|-----4~-|4~~~~~~~|
A|--------5~~----5|----5-------5---|0h555----|5~~----|5~~-----|5~~-----|--------|
D|0h555------5----|5------5--------|---------|-------|--------|--------|--------|

Guitar 2
Verse: Silent

Chorus
e|------------10---|------10----------10-----|
B|8------8------8--|8-------8----8------8----|
G|---11---11-----11|-11------11---11-----11--| Rest for two measures and repeat once more,
D|----------12-----|---12------12---12-----12| then another two measures of rest
A|-----------------|-------------------------|
D|-----------------|-------------------------|

Another great song by the genius of Claudio Sanches.  
I'm sure the guitar two part isn't perfect for the second part of the chorus 
because it isn't a direct repetition of the first time, 
but its close enought to get you by.  
This is my first time attempting to tab a song 
so forgive any mistakes, but I'm pretty sure this is accurate.
Tap to rate this tab
# A B C D E F G H I J K L M N O P Q R S T U V W X Y Z