Song name
# A B C D E F G H I J K L M N O P Q R S T U V W X Y Z

The Prize Fighter Inferno - From China With Love tab

-------------------------------------------------------------------------------
	From China With Love - The Prize Fighter Inferno
-------------------------------------------------------------------------------
Tabbed by: gwilson09
Email: gwilson91@gmail.com

Tuning: Standard

Let ring throughout


e|----------------------------------------|----------------------------0-----------|
B|-------------0----1---------0----1------|-------------0----1--------------0----1-|
G|--------0--------------0--------------0-|--------0--------------0----------------|
D|----------------------------------------|----------------------------------------|
A|---3------------------------------------|---2------------------------------------|
E|----------------------------------------|----------------------------------------|

e|----------------------------------------|----------------------------------------|
B|-------------1----0----1--------------0-|-------------0----1---------0---------0-|
G|--------0-------------------0-----------|--------0-------------------------------|
D|----------------------------------------|----------------------------------------|
A|---0-----------------------------0------|------------------------3--------3------|
E|----------------------------------------|---1------------------------------------|
Tap to rate this tab
# A B C D E F G H I J K L M N O P Q R S T U V W X Y Z