Song name
# A B C D E F G H I J K L M N O P Q R S T U V W X Y Z

The Prize Fighter Inferno - Brothers Blood Machine tab

ok so this is a pretty easy song for the most part i could figure out the lead riff in 
verse cuz its kinda quiet but here is the rest of it

intro:
----------------|
----------------|
----------------|
-----7----------|  18 times i think
-----5----------|
----------------|
     .

Verse: Guitar 2
----------------|
----------------|
----------------|
--777--(x4)-----|  Play that x4
--555-------777-|(x4)
------------555-|
  ..<       ..<


Chrous: Guitar 1
---------------------------|
---------------------------|
---9-----------------------|
-7--11--97----- play like--| x4
-----------5---------------|
---------------------------|

Guitar 2

(same as intro)


verse: same
Chorus: same

bridge: "dont change your heart"
-----------------|
-----------------|
-----------------|
3--------5-------| play like 4 time
3-(x12)--5-(x12--|
1--------3-------|

-0--------------|
----------------|
-7--------------|
-7-(x12)--------| play this 8x(on otro hit the high e or open note very hard)
-5--------------|
----------------|
verse: same
Bridge: same

ya that is it not to hard
enjoy
Tap to rate this tab
# A B C D E F G H I J K L M N O P Q R S T U V W X Y Z