Song name
# A B C D E F G H I J K L M N O P Q R S T U V W X Y Z

The Prize Fighter Inferno - The Missing Mccloud Boys tab

Help us improve GuitareTab! Take a short survey!
Verse 1
|-------0-----------0-----------0-----------0-----|
|-3-------3---3-------3---2-------2---2-------2---|
|---2-------2---2-------2---2-------2---2-------2-|
|-0---0-------0---0-------0---0-------0---0-------|
|-------------------------------------------------|
|-------------------------------------------------| x4

|-------0-----------0-----------0-----------0-----|
|-3-------3---3-------3---2-------2---2-------2---|
|---2-------2---2-------2---2-------2---2-------2-|
|-------------------------------------------------|
|-0---0-------0---0-------0---0-------0---0-------|
|-------------------------------------------------| x2

|-------0-----------0-----------0-----------0-----|
|-3-------3---3-------3---2-------2---2-------2---|
|---2-------2---2-------2---2-------2---2-------2-|
|-------------------------------------------------|
|-2---2-------2---2-------0---0-------0---0-------|
|-------------------------------------------------| x2

Chorus
|----------------------------------------------------|
|----------------------------------------------------|
|----------------------------------------------------|
|----------------------------------------------------|
|-10101010101010101010101010101010101010121212121212 -|
|-8-8-8-8-8-8-8-8-8-8-8-8-8-0-0-0-0-0-0-101010101010-|

verse 2
|-0-0-0-0-0-0-0-0-0-0-0-0-0-0-0-0-0-0-0-0-0-0-0-0-|
|-3-3-3-3-3-3-3-3-3-3-3-3-2-2-2-2-2-2-2-2-2-2-2-2-|
|-2-2-2-2-2-2-2-2-2-2-2-2-2-2-2-2-2-2-2-2-2-2-2-2-|
|-0-0-0-0-0-0-0-0-0-0-0-0-0-0-0-0-0-0-0-0-0-0-0-0-|
|-------------------------------------------------|
|-------------------------------------------------| x4

|-0-0-0-0-0-0-0-0-0-0-0-0-0-0-0-0-0-0-0-0-0-0-0-0-|
|-3-3-3-3-3-3-3-3-3-3-3-3-2-2-2-2-2-2-2-2-2-2-2-2-|
|-2-2-2-2-2-2-2-2-2-2-2-2-2-2-2-2-2-2-2-2-2-2-2-2-|
|-x-x-x-x-x-x-x-x-x-x-x-x-x-x-x-x-x-x-x-x-x-x-x-x-|
|-0-0-0-0-0-0-0-0-0-0-0-0-0-0-0-0-0-0-0-0-0-0-0-0-|
|-------------------------------------------------| x2

|-------------------------------------------------|
|-------------------------------------------------|
|-2-2-2-2-2-2-2-2-2-2-2-2-2-2-2-2-2-2-2-2-2-2-2-2-|
|-0-0-0-0-0-0-0-0-0-0-0-0-2-2-2-2-2-2-2-2-2-2-2-2-|
|-2-2-2-2-2-2-2-2-2-2-2-2-0-0-0-0-0-0-0-0-0-0-0-0-|
|-------------------------------------------------| x2

Chorus
|----------------------------------------------------|
|----------------------------------------------------|
|----------------------------------------------------|
|----------------------------------------------------|
|-10101010101010101010101010101010101010121212121212 -|
|-8-8-8-8-8-8-8-8-8-8-8-8-8-0-0-0-0-0-0-101010101010-|
Related for The Missing Mccloud Boys tab