Song name
# A B C D E F G H I J K L M N O P Q R S T U V W X Y Z

The Prize Fighter Inferno - Wayne Andrews The Old Bee Keeper tab

Band:The Prize Fighter Inferno
Song:Wayne Andrews,The Old Bee Keeper
Album:My Brothers Blood Machine

if you have questions message me at
myspace.com/wereshould1begin thats a one not an i
and the were is on purpose I know where

This is an amazing song off TPFI's album
its probably my favorite.So here we go
the other dude left out the looped guitar
and the pedal at the end,and he got the tuning
wrong but other than that its a great tab.
Oh ya I didnt steal his either this my own
----
Tuning:Eb Ab Db Gb Bb eb(typical coheed)

Guitar 1-(Claudio)
Guitar 2-(Travis)


Intro/verse:(you dont have to pull off on the 3,it just sounds cool)
"I'm the keeper of the bees as you've known"
eb|--------------------------------------------------------------------------|
Bb|5--------5-------3------------3p0-----------------------------------------|
Gb|---0--------0--------0------------0---------------------------------------|
Db|-----0------------------4---------------0----0------0---------------------|
Ab|7-------7--------5----------5---------0---0-------0---0-------------------|
Eb|------------------------------------3-------3---2-------2/5---------------|


"Just a worthless memory in this house"
eb|--------------------------------------------------------------------------|
Bb|5--------5-------3------------3p0-----------------------------------------|
Gb|---0--------0--------0------------0---------------------------------------|
Db|-----0------------------4---------------0----0------0---------------------|
Ab|7-------7--------5----------5---------0---0-------0---0-------------------|
Eb|------------------------------------3-------3---2-------2/5---------------|


"Through the light of day and dark will you notice me?"
eb|--------------------------------------------------------------------------|
Bb|5--------5-------3------------3p0-----------------------------------------|
Gb|---0--------0--------0------------0---------------------------------------|
Db|-----0------------------4---------------0----0------0---------------------|
Ab|7-------7--------5----------5---------0---0-------0---0-------------------|
Eb|------------------------------------3-------3---2-------2/5---------------|


"I'm the keeper of the bees,I'm a dead man"
eb|--------------------------------------------------------------------------|
Bb|5--------5-------3------------3p0-----------------------------------------|
Gb|---0--------0--------0------------0---------------------------------------|
Db|-----0------------------4---------------0----0------0---------------------|
Ab|7-------7--------5----------5---------0---0-------0---0-------------------|
Eb|------------------------------------3-------3---2-------2/5---------------|

Chorus:
"Dear diary I won't keep her awake anymore"
eb|-------------------------------------------------------------------------|
Bb|-1~-------1~-------------------------------------------------------------|
Gb|-2~-------2~-------------------------------------------------------------|
Db|-0~-------0~-------------------------------------------------------------|
Ab|-3~-------3~-------------------------------------------------------------|
Db|-------------------------------------------------------------------------|


Interlude:
eb|--------------------------------------------------------------------------|
Bb|5--------5-------3------------3p0-----------------------------------------|
Gb|---0--------0--------0------------0---------------------------------------|
Db|-----0------------------4---------------0----0------0---------------------|
Ab|7-------7--------5----------5---------0---0-------0---0-------------------|
Eb|------------------------------------3-------3---2-------2/5---------------|


"I won't love her anymore,she won't let me"
eb|--------------------------------------------------------------------------|
Bb|5--------5-------3------------3p0-----------------------------------------|
Gb|---0--------0--------0------------0---------------------------------------|
Db|-----0------------------4---------------0----0------0---------------------|
Ab|7-------7--------5----------5---------0---0-------0---0-------------------|
Eb|------------------------------------3-------3---2-------2/5---------------|


"Just a journey man's journey,to the end"
eb|--------------------------------------------------------------------------|
Bb|5--------5-------3------------3p0-----------------------------------------|
Gb|---0--------0--------0------------0---------------------------------------|
Db|-----0------------------4---------------0----0------0---------------------|
Ab|7-------7--------5----------5---------0---0-------0---0-------------------|
Eb|------------------------------------3-------3---2-------2/5---------------|

"Will this road hold home?Will I ever see"
eb|--------------------------------------------------------------------------|
Bb|5--------5-------3------------3p0-----------------------------------------|
Gb|---0--------0--------0------------0---------------------------------------|
Db|-----0------------------4---------------0----0------0---------------------|
Ab|7-------7--------5----------5---------0---0-------0---0-------------------|
Eb|------------------------------------3-------3---2-------2/5---------------|

"Against this broken street I gain,it will comfort me"
eb|--------------------------------------------------------------------------|
Bb|5--------5-------3------------3p0-----------------------------------------|
Gb|---0--------0--------0------------0---------------------------------------|
Db|-----0------------------4---------------0----0------0---------------------|
Ab|7-------7--------5----------5---------0---0-------0---0-------------------|
Eb|------------------------------------3-------3---2-------2/5---------------|

Chorus:
"Dear diary I won't keep her awake anymore"
eb|-------------------------------------------------------------------------|
Bb|-1~-------1~-------------------------------------------------------------|
Gb|-2~-------2~-------------------------------------------------------------|
Db|-0~-------0~-------------------------------------------------------------|
Ab|-3~-------3~-------------------------------------------------------------|
Db|-------------------------------------------------------------------------|


Outro:
eb|--------------------------------------------------------------------------|
Bb|5--------5-------3------------3p0-----------------------------------------|
Gb|---0--------0--------0------------0---------------------------------------|
Db|-----0------------------4---------------0----0------0---------------------|
Ab|7-------7--------5----------5---------0---0-------0---0-------------------|
Eb|------------------------------------3-------3---2-------2/5---------------|

Pedal:
eb|12-12-10-12-7-7/12-12-10-10/7-7/10-7-5-3-0--------------------------------|
Bb|--------------------------------------------------------------------------|
Gb|--------------------------------------------------------------------------|
Db|--------------------------------------------------------------------------|
Ab|--------------------------------------------------------------------------|
Eb|--------------------------------------------------------------------------|


eb|--------------------------------------------------------------------------|
Bb|5--------5-------3------------3p0-----------------------------------------|
Gb|---0--------0--------0------------0---------------------------------------|
Db|-----0------------------4---------------0----0------0---------------------|
Ab|7-------7--------5----------5---------0---0-------0---0-------------------|
Eb|------------------------------------3-------3---2-------2/5---------------|

eb|3/12-12-10-12/7-7/12-12-10-7/10-7/15-15-14-10-----------------------------|
Bb|--------------------------------------------------------------------------|
Gb|--------------------------------------------------------------------------|
Db|--------------------------------------------------------------------------|
Ab|--------------------------------------------------------------------------|
Eb|--------------------------------------------------------------------------|

So thats it,easy,but so beautiful
Another masterpiece from the mind
of Mr.Sanchez,I hope everyone likes my tab
God bless
Tap to rate this tab
# A B C D E F G H I J K L M N O P Q R S T U V W X Y Z