Song name
# A B C D E F G H I J K L M N O P Q R S T U V W X Y Z

The Prize Fighter Inferno - Who Watches The Watchmen tab

the prize fighter inferno
Who Watches The Watchmen
Tabbed By Austin Moss

Intro After Synths Strum a C chord and Let It ring out

Verse:  Theres A light In the shed That Should Help You Find Your Way
E------------------------|
B--1--11--111--1--11--111|
G--0--00--000--0--00--000|
D--2--22--222--2--22--222|
A--3--33--333--3--33--333|
e------------------------|

And throigh this door you deserve a beating through the Machine
E------------------------|
B--1--11--111--1--11--111|
G--2--22--222--2--22--222|
D--2--22--222--2--22--222|
A--0--00--000--0--00--000|
e------------------------|

Noone Could get this part
And little did you once know,in the race for the telephone
E----------------------------|
B----------------------------|
G----------------------------|
D--5-x-5-7-9--9-10-9-7-9-7-5-|
A--X-x-X-X-X--X--X-X-X-X-X-X-|
e--3-x-3-5-7--7--8-7-5-7-5-3-|

Stay with me to guide this dream
 Strum The C Pattern

Before they bury me
 Strum The Am Pattern

I'll be waiting up all night for you,
 Strum D-5 power Chord In The C chord pattern
       A-5
       e-3

In a nightmare that was made for me.
 Strum D-3 power Chord In The Am Pattern
       A-3
       e-1

thats All the Guitar Parts thats All u really need to Know
PLZ RATE
Tap to rate this tab
# A B C D E F G H I J K L M N O P Q R S T U V W X Y Z