Song name
# A B C D E F G H I J K L M N O P Q R S T U V W X Y Z

The Prize Fighter Inferno - A Death In The Family tab

Help us improve GuitareTab! Take a short survey!
-------------------------------------------------------------------------------
		A DEATH IN THE FAMILY - The Prize Figther Inferno
-------------------------------------------------------------------------------
Tabbed by:Rafa88offspring
Email:Rafa88offspring@hotmail.com	

Tuning:Standard (EADgbe)

Here's another song by the PFI, enjoy :)

These are the main riffs that the synth plays:
e|------------------------------------------|
B|-----999-----9-----6h7h9-----7-6----------|
G|-6-6-----8-8---6-6-------8-8--------------|
D|------------------------------------------|
A|----------------------------------9----6--|
E|------------------------------------------|

e|-------9------------------------9-------------6----|
B|-6h7-7---7-6--------------6h7-7---7-6---6-------9--|
G|-------------8-6-5-6-5----------------8---6--------|
D|-----------------------6---------------------------|
A|---------------------------------------------------|
E|---------------------------------------------------|

The Chords for the song are:
e|---------------------------|
B|----------------7----------|
G|-6------6-------6-------8--|
D|-6------6-------4-------8--|
A|-4------4---------------6--|
E|---------------------------|


| /  slide up
| \  slide down
| h  hammer-on
| p  pull-off
| ~  vibrato
| +  harmonic
| x  Mute note
===============================================================================
Related for A Death In The Family tab