Guitaretab - guitar tabs
Song name
# A B C D E F G H I J K L M N O P Q R S T U V W X Y Z

The Prize Fighter Inferno - Our Darling Daughter You Are Little Cecilia Marie tab

Intro/Verse riff:

E E E E E E E E S S S Q S E E E E 
E||-----0--------0------------|----------------------0-----|
B||--------3--------3---------|---------0----0-------------|
G||--2--------2---------------|----2p-0-2------2--2-----2--|
D||--2--------2--------2--0h--|--2-------------------------|
A||--0--------0--------0------|----------------------------|
E||---------------------------|----------------------------|


E E E E E E E E E E E E E E E E S E S E Q S E 
--1--0--------0--------|--0--------0--------0-----|---------------------------|
-----------------------|--------------3--------3--|-----------L-----0----0----|
--------2--0-----2--0--|--------2--------2--------|-----L-----2p-0--2------2--|
-----------------------|-----2--2--------2--------|--2--0h-2------------------|
-----------------------|-----0--0--------0--------|--0------------------------|
-----------------------|--------------------------|---------------------------|


E E E E E E E E E E E 
-----0-----1--0--------0--|--------0--||
--------------------------|-----------||
--2-----2--------2--0-----|--2--0-----||
--------------------------|-----------||
--------------------------|-----------||
--------------------------|-----------||

Breakdown:
[ Tab from: http://www.guitaretab.com/t/the-prize-fighter-inferno/82010.html ]
E E E E E E E E E E E E E E E E 
E||--------------|--------------|--------------|------------------|
B||--------------|--------------|--------------|------------------|
G||--5--5--5--5--|--5--5--7--7--|--7--7--7--7--|--10--10--10--10--|
D||--5--5--5--5--|--5--5--7--7--|--7--7--7--7--|--10--10--10--10--|
A||--3--3--3--3--|--3--3--5--5--|--5--5--5--5--|---8---8---8---8--|
E||--------------|--------------|--------------|------------------|


E E E E E E E E 
----------------|--------------||
----------------|--------------||
--10--10--9--9--|--9--7--7--7--||
--10--10--9--9--|--9--7--7--7--||
---8---8--7--7--|--7--5--5--5--||
----------------|--------------||

Chorus:

E E E E E E E E E E E E E E E E 
E||--------------|--------------|--------------|------------------|
B||--------------|--------------|--------------|------------------|
G||--5--5--5--5--|--5--5--7--7--|--7--7--7--7--|--10--10--10--10--|
D||--5--5--5--5--|--5--5--7--7--|--7--7--7--7--|--10--10--10--10--|
A||--3--3--3--3--|--3--3--5--5--|--5--5--5--5--|---8---8---8---8--|
E||--------------|--------------|--------------|------------------|


E E E E E E E E 
----------------------------------|-----|-----||
----------------------------------|-----|-----||
--10--10--10--10--10--10--10--10--|-----|-----||
--10--10--10--10--10--10--10--10--|-----|-----||
---8---8---8---8---8---8---8---8--|-----|-----||
----------------------------------|-----|-----||


Outro:

E||--------------------||
B||--------------------||
G||--0~----------------||
D||--2~----------------||
A||--0~----------------||
E||--2~----------------||
Related for Our Darling Daughter You Are Little Cecilia Marie tab
×
Best way to learn
"Our Darling Daughter You Are Little Cecilia Marie"