Song name
# A B C D E F G H I J K L M N O P Q R S T U V W X Y Z

The Professionals - Little Boys In Blue tab

The Professionals
Little Boys In Blue
From The Best of the Professionals


INTRO/MAIN RIFF (LEAD GUITAR) 2X


E------------------------|
B------------------------|
G---8----8-----6---------|
D-----------9-----9------|
A------------------------|
E------------------------|

E------------------------|
B--8--9--11--------------|
G------------------------|
D------------------------|
A------------------------|
E------------------------|

INTRO AND VERSE

E----------------------------------|
B----------------------------------|
G--6-6-6-6-9-9-9-9-----------------|
D--6-6-6-6-9-9-9-9-9-9-9-9-9-9-9-9-|
A--4-4-4-4-7-7-7-7-9-9-9-9-9-9-9-9-|
E------------------7-7-7-7-7-7-7-7-|

CHORUS (2X)

E---------------------------------------------------------------------|
B---------------------------------------------------------------------|
G--11-11-11-11-11-11-11-11-11-11-11-11-11-9-9-9-9-9-9-9-9-9-9-9-9-9-9-|
D--11-11-11-11-11-11-11-11-11-11-11-11-11-9-9-9-9-9-9-9-9-9-9-9-9-9-9-|
A--9--9--9--9--9--9--9--9--9--9--9--9--9--7-7-7-7-7-7-7-7-7-7-7-7-7-7-|
E---------------------------------------------------------------------|

E------------------------------------------------------|
B------------------------------------------------------|
G--------------------------------9-9-9-9-9-9-9-9-9-9-9-|
D--11-11-11-11-11-11-11-11-11-11-9-9-9-9-9-9-9-9-9-9-9-|
A--11-11-11-11-11-11-11-11-11-11-7-7-7-7-7-7-7-7-7-7-7-|
E--9--9--9--9--9--9--9--9--9--9------------------------|

GUITAR SOLO (4X)

E--9-9-9-9-9-9-9-9-9-9-9-9-9-9-9-9-9-9-9-9-9-9-9-9-9-9-2-2--2-2-2-5-5--5-5-9-9-|
B--9-9-9-9-9-9-9-9-9-9-9-9-9-9-9-9-9-9-9-9-9-9-9-9-9-9-2-2--2-2-2-5-5--5-5-9-9-|
G---------------------------------------------------------4b---------7b--------|
D------------------------------------------------------------------------------|
A------------------------------------------------------------------------------|
E------------------------------------------------------------------------------|

E-9-9-9-9-9-9-9-9-9-9---------9-9-9-9-9-|
B-9-9-9-9-9-9-9-9-9-9---------9-9-9-9-9-|
G-----------------------11b-------------|
D---------------------------------------|
A---------------------------------------|
E---------------------------------------|


E---------------------------------------------------------------|
B---------------------------------------------------------------|
G--6-6-6-6-6-6-6-6-9-9-9-9-9-9-9-9------------------------------|
D--6-6-6-6-6-6-6-6-9-9-9-9-9-9-9-9-9-9-9-9-9-9-9-9-9-9----------|
A--4-4-4-4-4-4-4-4-7-7-7-7-7-7-7-7-9-9-9-9-9-9-9-9-9-9----------|
E----------------------------------7-7-7-7-7-7-7-7-7-7----------|

OUTRO (RTHYM GUITAR)

E------------------------------------------------------|
B------------------------------------------------------|
G--10-10-10-10-10-10-9-9-9-9-9-9-----------------------|
D--10-10-10-10-10-10-9-9-9-9-9-9-9-9-9-9-9-9-9-9-9-9-9-|
A---8--8--8--8--8--8-7-7-7-7-7-7-9-9-9-9-9-9-9-9-9-9-9-|
E--------------------------------7-7-7-7-7-7-7-7-7-7-7-|

OUTRO (LEAD GUITAR)

E-----------------------------------------------------------------------|
B----7---7---7---7---7---7---7---7---7---7---7---7---7---7--------------|
G--9b--9b--9b--9b--9b--9b--9b--9b--9b--9b--9b--9b--9b--9b----8---8----6-|
D-------------------------------------------------------------------9---|
A-----------------------------------------------------------------------|
E-----------------------------------------------------------------------|

E---------------------------------------|
B---------------------------------------|
G--9---8---8--9--11----8---8-----6------|
D-----------------------------9-----9---|
A---------------------------------------|
E---------------------------------------|


SONG STRUCTURE

INTRO/MAIN RIFF
VERSE
CHORUS
INTRO/MAIN RIFF
VERSE
CHORUS
GUITAR SOLO
OUTRO


LYRICS:

LITTLE BOYS LIKE YOU
THEYVE GOT A JOB TO DO
IN UNIFORM, ILL TELL YOU WHAT TO DO
HELP OLD LADIES ACROSS THE STREET
DIRECT THE TRAFFIC IN YOUR SLEEP
ITS A JOB THAT YOU MIND
BY ALWAYS WORKING OVERTIME
COME AND SEE ME ANYTIME
BUT YOULL HAVE TO TOW THE LINE
AND IM NOT QUITE TENSE AT ALL
BUT ILL REALLY HAVE A GO

AND WHEN IM WALKING ON THE STREETS
YOUD LIKE TO KNOW JUST WHAT I THINK
DONT YOU THINK I LOOK A FOOL
YOU SHOULD DREAD ON BACK TO SCHOOL
DRINKING NNOW DOWN BY THE YARD
YOURE SO TOUGH AND YOURE SO HARD
IF YOU TRY YOU CAN FEEL IT
DONT LOOK NOW CAUSE YOU SHOULD WIN EM
BABY FACED AND READY TO KILL
ANY BOY WHOSE WRITTEN HIS WILL ASK YOU READY

LITTLE BOYS LIKE YOU
Tap to rate this tab
 
# A B C D E F G H I J K L M N O P Q R S T U V W X Y Z