Song name
# A B C D E F G H I J K L M N O P Q R S T U V W X Y Z

The Professionals - Mods Skins Punks tab

Artist: The Professionals
Song: Mods, Skins, Punks

INTRO (Lead Guitar) (17x)

E-----------------|
B-----------------|
G--9-9-9-9-9-9-8--|
D-----------------|
A-----------------|
E-----------------|

Rhythm Guitar  (4x)

E---------------------------------------------------------------------|
B---------------------------------------------------------------------|
G---9-9-9-9-9-9-9-9---------------------------------------------------|
D---9-9-9-9-9-9-9-9-9-9-9-9-9-9-9-9-7-7-7-7-7-7-7-7-9-9-9-9-9-9-9-9---|
A---7-7-7-7-7-7-7-7-9-9-9-9-9-9-9-9-7-7-7-7-7-7-7-7-9-9-9-9-9-9-9-9---|
E-------------------7-7-7-7-7-7-7-7-5-5-5-5-5-5-5-5-7-7-7-7-7-7-7-7---|

VERSE (2x)

E------------------------------------------------------------------------|
B------------------------------------------------------------------------|
G-9-9-9-9-9-9-9-11-11-11-11-11-11-11-------------------------------------|
D-9-9-9-9-9-9-9-11-11-11-11-11-11-11--9-9-9-9-9-9-9-9-9-9-11-11-11-11-11-|
A-7-7-7-7-7-7-7--9--9--9--9--9--9--9--9-9-9-9-9-9-9-9-9-9-11-11-11-11-11-|
E-------------------------------------7-7-7-7-7-7-7-7-7-7--9--9--9--9--9-|
                    (On the 2nd time the B is not played)
E----------------------------------------|
B----------------------------------------|
G----------------------------------------|
D-11-7-7-7-7-7-7-7-7-9-9-9-9-9-9-9-9-9-9-|
A-11-7-7-7-7-7-7-7-7-9-9-9-9-9-9-9-9-9-9-|
E--9-5-5-5-5-5-5-5-5-7-7-7-7-7-7-7-7-7-7-|

PRE-CHORUS Rhythm Guitar (Palm Mute)

E-----------------------------------------------------------------------|
B-----------------------------------------------------------------------|
G-----------------------------------------------9-9-9-9-9-9-9-9-9-9-9---|
D-6-6-6-6-6-6-6-6-6-6-6-6-7-7-7-7-7-7-7-7-7-7-7-9-9-9-9-9-9-9-9-9-9-9---|
A-6-6-6-6-6-6-6-6-6-6-6-6-7-7-7-7-7-7-7-7-7-7-7-7-7-7-7-7-7-7-7-7-7-7---|
E-4-4-4-4-4-4-4-4-4-4-4-4-5-5-5-5-5-5-5-5-5-5-5-------------------------|

E-------------------------|
B-------------------------|
G-------------------------|
D-9-9-9-9-9-9-9-9-9-9-----|
A-9-9-9-9-9-9-9-9-9-9-----|
E-7-7-7-7-7-7-7-7-7-7-----|


CHORUS (IT'S THE SAME AS THE INTRO WITH BOTH RHYTHM AND LEAD GUITAR BUT NOT AS LONG)

VERSE

PRE-CHORUS

CHORUS

PRE-CHORUS

CHORUS (UNTIL THE END OF THE SONG)
Tap to rate this tab
 
# A B C D E F G H I J K L M N O P Q R S T U V W X Y Z