Guitaretab - guitar tabs
Song name
# A B C D E F G H I J K L M N O P Q R S T U V W X Y Z

The Project Hate Mcmxcix - You Come To Me Through Hell tab

SONG: You Come to Me Through Hell
ARTIST: The Projcet Hate MCMXCIX
ALBUM : The Lustrate Process

Tuning (High to Low): A-E-C-G-D-A (A STANDARD)

PM- Palm mute     * - Pinch Harmonic
\ - Slide down    > - let ring
/ - Slide up      h - hammer on
~ - Vibrato       p - pull off
w - wide vibrato  b(1/4) - Bend (step)
. - Stoccato      br(1/4) - Bend release (step)


Riff 1 (PT.A)                   
A|-----------------------|      
E|-----------------------|
C|-----------------------|          
G|-2-2-2---2------3-2----| x3   
D|-2-2-2---2--2-3-----1--|     
A|-0-0-0---0-------------|          
   PM-------|                      

Riff 1 (Pt.B)                      Riff 1 (Pt.C)                    Riff 1
A|--------------------------------|--------------------------------|Sequence 
E|--------------------------------|--------------------------------|Pt.A
C|--------------------------------|--------------------------------|Pt.B
G|---2-2-2---2--2-2--2/3-3-3/6-6--|---2-2-2---2--2-2--6\3-3-3\2-2--|Pt.A 
D|---2-2-2---2--2-2---------------|---2-2-2---2--2-2---------------|Pt.C
A|---0-0-0---0--0-0---------------|---0-0-0---0--0-0---------------|     
     PM------------|                  PM------------|


Riff 2 (Now, How does it feel?)
A|---------------------------------|-----------------------------------|
E|---------------------------------|-----------------------------------|
C|---------------------------------|-----------------------------------|
G|-3-2-2-2-2-2-3-3-2-2-3-3-6-6-3-3-|-7-6-6-6-6-6-7-7-6-6-7-7-10-10-7-7-|
D|---------------------------------|-----------------------------------|
A|---------------------------------|-----------------------------------|
                                                                           x2
A|---------------------------------|-------------------------------------|
E|---------------------------------|-------------------------------------|
C|---------------------------------|-------------------------------------|
G|-3-2-2-2-2-2-3-3-2-2-3-3-6-6-3-3-|-7-6-6-6-6-6-7-7-9-9-9-9-10-10-10-10-|
D|---------------------------------|-------------------------------------|
A|---------------------------------|-------------------------------------|


Riff 3
A|-----------------------------------------------------------------|
E|-----------------------------------------------------------------|
C|-----------------------------------------------------------------|
G|-6-----6-----6---3-----3-----3---2-----2-----2-------------------|
D|---7-----7-----7---5-----5-----5---3-----3-----3-5-----5-----5---|
A|---------------------------------------------------1-----1-----1-|

(Betrayed...)
A|---------------------------------------------------|
E|---------------------------------------------------|
C|-----------------7---------------------------*-----|
G|-6-----6---6-7-9---7~----7-9-5~----5-7-3~----3w----|
D|---7-----7-----------------------------------------|
A|---------------------------------------------------|


Riff 4 (I believe it was you...)
A|-----------------------------------------------------------------|
E|-----------------------------------------------------------------|
C|-----------------------------------------------------------------|
G|-----------------------------------------------------------------|
D|-7-7-7-7-7-7-7-7-3-3-3-3-3-3-3-3-1-1-1-1-1-1-1-1-0-0-0-0-0-0-0-0-|
A|-----------------------------------------------------------------|

A|-----------------------------------------------------------------|
E|-----------------------------------------------------------------|
C|-----------------------------------------------------------*-----|
G|-----------------------------------------------------------3w----|
D|-7-7-7-7-7-7-7-7-3-3-3-3-3-3-3-3-1-1-1-1-1-1-1-1-0-0-0-0-0-------|
A|-----------------------------------------------------------------|


Riff 5A
A|--------------------------------------------------|
E|----------------------------------------------*---|
C|----9~--7-9-10-7-9-10-5~--4--5~--7--5h7p5-4~--5w--|
G|-/7-----------------------------------------------|
D|--------------------------------------------------|
A|--------------------------------------------------|


Riff 6A (Pt.A)                Riff 6A (Pt.B)           
A|---------------------------|-------------------------|
E|---------------------------|-------------------------|
C|------------------------*--|-------------------------|
G|-1-------------1--------3w-|-1-1-1-------------------|
D|---3-3-3-3-3-3---3-3-3-----|--------4-4-4--3-3-3--4--|
A|---------------------------|-------------------------|
     PM---------|  PM---|      PM-|   PM-|   PM-|       

Riff 6A (Pt.C)            Riff 6A (Pt.D)
A|-------------------------|----------------------------|
E|-------------------------|----------------------------|
C|-------------------------|----------------------------|
G|-6-6-6--5-5-5--3-3-3--2--|----------------------------|
D|-------------------------|-4-4-3-3-4-4-3-3-4-4-3-3-1--|
A|-------------------------|----------------------------|
   PM-|   PM-|   PM-|

Riff 6A Sequence:
Pt.A
Pt.B
Pt.A
Pt.C    x2    
Pt.A    
Pt.B
Pt.A 
Pt.D


Riff 1


Riff 7 (Pt.A)                 Riff 7 (Pt.B)               
A|---------------------------|---------------------------|
E|---------------------------|---------------------------|
C|---------------------------|-----------------------*---|
G|-2-2-2-2-2-2-6--3h6p3--2---|-2-2-2-2-2-2-6--3h6p3--2w--|
D|-------------------------3-|---------------------------|
A|---------------------------|---------------------------|

Riff 7 (Pt.C)               Riff 7 (Pt.D) 
A|-------------------------|---------------------------|
E|-------------------------|---------------------------|
C|-------------------------|---------------------------|
G|-2-2-2-2-2-2-6--3h6p3----|---------------------------|
D|-----------------------\-|-------------------------\-|
A|-----------------------\-|-0-0-0-0-0-0-0-0-0-0-0-0-\-|
                             PM---------------------|
Riff 7 Sequence:
Pt.A
Pt.B
Pt.A
Pt.C      
Pt.A    
Pt.B
Pt.A 
Pt.D


Riff 8
A|-------------------------------------------------------|
E|-------------------------------------------------------|
C|-----9~--7-9-10-7-9-10-5~--/10-------------------------|
G|-2------------------------------10--7-9-10--7--9-6~----| x10
D|---3---------------------------------------------------|
A|-------------------------------------------------------|


Riff 9 (Pt.A)                   Riff 9 (Pt.B)                  
A|-----------------------------|------------------------------|
E|-----------------------------|------------------------------|
C|-----9br(1/2)----------------|------------------------------|
G|-------------9br(1/2)~-6-7-9-|-9br(1/2)-6br(1/2)------------|   
D|-----------------------------|-------------------8~---------|
A|-0>--------------------------|------------------------1-4-1-|

Riff 9 (Pt.C)                 Riff 9 (Pt.D)
A|-----------------------------|---------------|
E|-----------------------------|---------------|
C|--------13>------------9>----|-------------.-|
G|----10>-----10>-----6>----6>-|-----10>--2--2-|   
D|-8>-------------4>-----------|--8>------2--2-|
A|-----------------------------|----------0--0-|

Riff 9 Sequence:
Pt.A
Pt.B   x3 
Pt.A
Pt.C
-----
Pt.A
Pt.D


.............................................................................

Solo by Mike Wead
Tuning (High to Low): E-B-G-D-A-E (STANDARD)

PART I (Mutilation!)
E|--------------------------------------11-14b(1/2)--|
B|-14br(1/2)------12~-------12-13-12-13--------------|
G|-----------------------14--------------------------|
D|---------------------------------------------------|
A|---------------------------------------------------|
E|---------------------------------------------------|

E|-14-12-11--------------------|
B|----------13-12-10-----------|
G|-------------------12-11w----|
D|-----------------------------|
A|-----------------------------|
E|-----------------------------|

PART II
E|-20-17-19-20-19-17----------------|
B|----------------------------------|
G|-------------------17-14-16-17-14-|
D|----------------------------------|
A|----------------------------------|
E|----------------------------------|
[ Tab from: http://www.guitaretab.com/t/the-project-hate-mcmxcix/231729.html ]
E|-20--17------17-----------------------------------------|
B|---------19------19--17--16-----------------------------|
G|-----------------------------18--16---------------------|
D|-------------------------------------19--17--16---------|
A|-------------------------------------------------18w----|
E|--------------------------------------------------------|

PART III
E|-14---11-------------17---14------------|
B|-----------13---12-------------16---13--|
G|----------------------------------------|
D|----------------------------------------|
A|----------------------------------------|
E|----------------------------------------|

E|----------16-17-20-17-16-------------22b(1)----22b(1)w----|
B|-16-17-19----------------19-17-16-------------------------|
G|----------------------------------17----------------------|
D|----------------------------------------------------------|
A|----------------------------------------------------------|
E|----------------------------------------------------------|

PART IV
E|----------------------------------------|
B|---------------------19--16--17--19--16-|
G|-17--14--15--17--14---------------------|
D|----------------------------------------|
A|----------------------------------------|
E|----------------------------------------|

E|---------------------17--14--15--17--14---------------------|
B|------------------------------------------------------------|
G|-17--14--15--17--14----------------------17--14--15--17--14-|
D|------------------------------------------------------------|
A|------------------------------------------------------------|
E|------------------------------------------------------------|


E|-19--16--17--19--16----------------------20b(1)w----|
B|----------------------------------------------------|
G|---------------------17--14--15--17--14-------------|
D|----------------------------------------------------|
A|----------------------------------------------------|
E|----------------------------------------------------|

.............................................................................


Rythm under solo
A|-------------------------------|
E|-------------------------------|
C|-------------------------------|
G|-------------------------------|
D|----x24-------x4--------x4-----|
A|-(0-0-0-0)-(4-4-4-4)-(5-5-5-5)-|
    PM-----|  PM-----|


Riff 10 (Pt.A)
A|--------------------------------------------------------| Riff 10 Sequence
E|--------------------------------------------------------| Pt.A
C|-----.------.------.------.------.------.------.------.-| Pt.B
G|--4--4----4-4---4--4----4-4---5--5----5-5---2--2----2-2-| Pt.A
D|--4--4----4-4---4--4----4-4---5--5----5-5---2--2----2-2-| Pt.C
A|--2--2----2-2---2--2----2-2---3--3----3-3---0--0----0-0-|
          
Riff 10 (Pt.B)
A|--------------------------------------------------------|
E|--------------------------------------------------------|
C|-----.------.------.------.------.------.------.------.-|
G|--4--4----4-4---4--4----4-4---5--5----5-5---8--8----8-8-|
D|--4--4----4-4---4--4----4-4---5--5----5-5---8--8----8-8-|
A|--2--2----2-2---2--2----2-2---3--3----3-3---6--6----6-6-|

Riff 10 (Pt.C)
A|----------------------------------------------------------|
E|----------------------------------------------------------|
C|-----.------.------.------.-------------------------------|
G|--5--5----5-5---5--5----5-5---8-8-8-8-8-8-8-8-8-8-8-8-----|
D|--5--5----5-5---5--5----5-5---8-8-8-8-8-8-8-8-8-8-8-8-\---|
A|--3--3----3-3---3--3----3-3---6-6-6-6-6-6-6-6-6-6-6-6-\---|


Riff 5B (I believe it was you...)   
A|--------------------------------------------------|
E|--------------------------------------------------|
C|----9~--7-9-10-7-9-10-5~--4--5~--7--5--4~--5------|
G|-/7-----------------------------------------------|
D|--------------------------------------------------|
A|--------------------------------------------------|
                                                           x2
A|--------------------------------------------------|
E|--------------------------------------------------|
C|----9~--7-9-10-7-9-10-5~--4--5~--7--5--4----------|
G|-/7---------------------------------------7--6----|
D|--------------------------------------------------|
A|--------------------------------------------------|


Riff 6A


Riff 11 (Pt.A)          Riff 11 (Pt.B)                        
A|---------------------|-------------------------------------|
E|---------------------|-------------------------------------|
C|-.-------------------|-------------------------------------|
G|-7--7-8-7----7-------|-------------------------------------|
D|----------10---10-9--|-0-0-0-0-0-0-1-1-4-4-4-4-4-4-5-5-8-8-|
A|---------------------|-------------------------------------|
                         PM---------------------------------|
Riff 11 (Pt.C)
A|-------------------------------------|
E|-------------------------------------|
C|-------------------------------------|
G|-------------------------------------|
D|-0-0-0-0-0-0-1-1-4-4-4-4-4-4-5-5-8-8-|
A|-------------------------------------|
                                              Riff 11 Sequence A:
Riff 11 (Pt.D)                                Pt.A
A|-------------------------------------|      Pt.B   
E|-------------------------------------|      Pt.A
C|-------------------------------------|      Pt.C 
G|-------------------------------------|      Pt.A  
D|-0-0-1-1-1-1-1-1-4-4-3-3-3-3-1-1-1-1-|      Pt.B 
A|-------------------------------------|      Pt.A  
   PM-|                                       Pt.D

Riff 11 (Pt.E) 
A|-------------------------------------| 
E|-------------------------------------|  
C|-------------------------------------|  
G|-----8-8-8-8-8-8-8-8-3-3-3-3-3-3-3-3-|  
D|-0-0---------------------------------|  
A|-------------------------------------|  
   PM-|                                   


Bridge 1 (Blood, We... Shed)
A|--------------------|
E|--------------------|
C|-.----.--------.----|
G|-7----7--------7----|
D|-7----7--------7----|
A|-5----5--------5----|


Riff 11 Sequence B:
Pt.B
Pt.A
PT.C
Pt.A
Pt.B
Pt.A
Pt.E


Riff 12 (Pt.A) (You know...)        Riff 12 (Pt.B)                    
A|---------------------------------|---------------------------------|
E|---------------------------------|---------------------------------|
C|-----------------6-6-6-6---------|---------------------------------|
G|---------7-7-7-7---------7-7-7-7-|---------7-7-7-7-8-8-8-8-5-5-8-8-|
D|-0-0-0-0-------------------------|-0-0-0-0-------------------------|
A|---------------------------------|---------------------------------| 

Riff 12 (Pt.C)
A|-------------------------------|
E|-------------------------------|
C|-------------------------------|
G|-------------------------------|
D|-8-8-8-8-7-7-------------------|
A|-------------10-10-9-9-6-6-6-6-| 

Riff 12 (Pt.D)
A|-------------------------------|
E|-------------------------------|
C|---------10-10-9-9-7-7-9-9-9-9-|
G|-------------------------------|
D|-8-8-8-8-----------------------|
A|-------------------------------| 

Riff 12 Sequence:
Pt.A
Pt.B
Pt.A
Pt.c
Pt.A   x3 (Third time Play Pt.C last, not Pt.D)
Pt.B
Pt.A
Pt.D


Bridge 2 (Flames...)
A|--------------------------------------------------|    
E|--------------------------------------------------|
C|--------------------------------------------------|
G|-----.----[----.------.]------.-------------------| 
D|-7-7-7----[7-7-7--7-7-7]--7-7-7----[7-7-7---7--7]-|
A|-5-5-5----[5-5-5--5-5-5]--5-5-5----[5-5-5---5--5]-|
   PM---------------------------------------------|
                                                          x4
A|------------------------------------------|    
E|------------------------------------------|
C|--------------------------6--{6}----------|
G|-----.----[----.------.]--6--{6}--8--{8}--| 
D|-7-7-7----[7-7-7--7-7-7]--4--{4}--8--{8}--|
A|-5-5-5----[5-5-5--5-5-5]----------6--{6}--|
   PM--------------------|

Notes in [these brackets] = do not not play on third time
Notes in {these brackets} = play only on fourth time


Riff 1 (Substitute Pt.C for Pt.D)

Riff 1 (Pt.D)
A|------------------------|   
E|------------------------|     
C|------------.-----------|     
G|-2-2-2---2--2-----------| 
D|-2-2-2---2--2-----------|    
A|-0-0-0---0--0-----------|        
   PM----------|         


Riff 2


Riff 5B 


Riff 6B                          
A|-----------------------------------------------------|
E|-----------------------------------------------------|
C|------------------------*----------------------------|
G|-1-------------1--------3w---1-1-1---------------.---| END
D|---3-3-3-3-3-3---3-3-3--------------4-4-4--3-3-3-4---|
A|-----------------------------------------------------|
     PM---------|  PM---|      PM-|   PM-|            

Related for You Come To Me Through Hell tab
You Come To Me Through Hell chords by The Project Hate Mcmxcix