Song name
# A B C D E F G H I J K L M N O P Q R S T U V W X Y Z

The Project Hate Mcmxcix - I See Nothing But Flesh tab

SONG: I See Nothing But Flesh
ARTIST: The Projcet Hate MCMXCIX
ALBUM : Armageddon March Eternal - Symphonies of Slit Wrists

Tuning (High to Low): A-E-C-G-D-A (A STANDARD)

PM- Palm mute     * - Pinch Harmonic             ^ - strum upwards
\ - Slide down    > - let ring
/ - Slide up      h - hammer on
~ - Vibrato       p - pull off
w - wide vibrato  b(1/4) - Bend (step)
. - Stoccato      br(1/4) - Bend release (step)    


Riff 1 (Pt.A)                       Riff 1 (Pt.B)
A|---------------------------------|----------------------------------|
E|---------------------------------|----------------------------------|
C|---------------------------------|----------------------------------|
G|---------------------------------|----------------------------------|
D|---------------------------------|-14/15--------15-18\15--------15--|
A|-4-0-0-0-3-0-0-0-0-0-1-3-1-0-0-0-|-12/13--13-13-13-16\13--13-13-13--|
     PM---|  PM-------|      PM---|         PM---|          PM---|
 
Riff 1 (Pt.C1)                 Riff 1 (Pt.C2)
A|----------------------------|-----------------------------------|
E|----------------------------|-----------------------------------|
C|----------------------------|-----------------------------------|
G|-------------------------.--|-----------------------------------|
D|-14/15--------15--11/14-14--|-14/15--------15--11/14--------14--|
A|-12/13--13-13-13--9-/12-12--|-12/13--13-13-13--9-/12--12-12-12--|
          PM---|                       PM---|           PM---|

Riff 1 (Pt.D)                         Riff 1 (Pt.E)
A|-----------------------------------|----------------------|
E|-----------------------------------|----------------------|
C|-----------------------------------|----------------------|
G|-----------------------------------|----------------------|
D|-14/15--------15--18/19--------19--|-11----6----5----3----|
A|-12/13--13-13-13--16/17--17-17-17--|-9-----4----3----1----|
          PM---|           PM---|

Riff 1 Sequence:
*Pt.A Before each!*
Pt.B
Pt.C1  x2 
Pt.D
Pt.E
Second time substitute C1 for C2


Riff 2 (Fear, is what we strike into their hearts...)
A|-------------------------------------------------------|
E|-------------------------------------------------------|
C|-----------.---------------------------{8-------}------|
G|-7----7/10-7----7--7---[6------3]------{6------8}------| x8
D|-7----7/10-7----7--7---[6------3]------{6------8}------|
A|-5----5/8--5----5--5---[4------1]------{-------6}------|
             ^       ^           ^               ^

Substitute what is in [these brackets] for what is in {these brackets}
on repeats 4 and 8.


Bridge 1 (Pt.A)
A|-----------------------------------------------|      Bridge 1 Sequence: 
E|-----------------------------------------------|      Pt.A
C|-----------------------------------------------|      Pt.B
G|-----------------------------------------------|      Pt.A      
D|-----x8----------------------------------------|      Pt.C
A|-(0-0-0-0)----8-8-8-8----8-8-6-6----6-6-6-6----|      
    PM-----|    PM-----|   PM-----|   PM-----|

Bridge 1 (Pt.B)
A|------------------------------------------------|
E|------------------------------------------------|
C|------------------------------------------------|
G|------------------------------------------------|
D|-----x8-----------------------------------------|
A|-(0-0-0-0)----12-12-12-12----6-6-6-6----6-6-6-6-|
    PM-----|    PM---------|   PM-----|   PM-----|

Bridge 1 (Pt.C)
A|-------------------------------------------|
E|-------------------------------------------|
C|-------------------------------------------|
G|-------------------------------------------|
D|------x8-----------------------------------|
A|--(0-0-0-0)----12-12-12-12\----4-4-4-4\----|
     PM-----|    PM---------|    PM-----|   


Riff 3 (Pt.A) (Set me under your bitter spell...)
A|------------------------------------------------------------------|
E|------------------------------------------------------------------|
C|------------------------------------------------------------------|
G|------------------------------------------------------------------|
D|------------------------------------------------------------------|
A|--2h4-4-4-4-4-4-4-2h4-4-4-4-4-4-4-2h4-4-4-4-4-4-4-2h4-4-4-4h5-5-5-|
    PM-------------------------------------------------------------|

Riff 3 (Pt.B)
A|--------------------------------------------------------------|
E|--------------------------------------------------------------|
C|--------------------------------------------------------------|
G|--------------------------------------------------------------|
D|--------------------------------------------------------------|
A|--2h4-4-4-4-4-4-4-2h4-4-4-4-4-4-4-7-7-7-7-7-7-7-5-5-5-5-5-5-5-|
    PM---------------------------------------------------------|

Riff 4 (Pt.C)
A|------------------------------------------------------------|
E|------------------------------------------------------------|
C|------------------------------------------------------------|
G|------------------------------------------------------------|
D|------------------------------------------------3--4--5--6--|
A|--2h4-4-4-4-4-4-4-2h4-4-4-4-4-4-4-7-7-7-7-7-7-7-1--2--3--4--|
    PM------------------------------------------------------|

Riff 4 Sequence:
Pt.A
Pt.B    x3
-----
Pt.A
Pt.C


Riff 2


Riff 5 (Arise...)
A|-------------------------------------------------------------|
E|-------------------------------------------------------------|
C|-------------------------------------------------------------|
G|-------------------------------------------------------------| x3
D|-----.------.------.------.------.------.--------------------|
A|-0-0-0--0-0-0--0-0-0--0-0-0--0-0-0--0-0-0--4-3-4-3-4-3-1-----|
   PM---| PM---| PM---| PM---| PM---| PM---|           
                                                                      x2
A|-------------------------------------------------------------|
E|-------------------------------------------------------------|
C|-------------------------------------------------------------|
G|-------------------------------------------------------------| x1
D|-----.------.------.------.------.------.--/-/-/-/-/-/-/-/-/-|
A|-0-0-0--0-0-0--0-0-0--0-0-0--0-0-0--0-0-0--/-/-/-/-/-/-/-/-/-|
   PM---| PM---| PM---| PM---| PM---| PM----------------------|


Riff 6
A|-----------------------------------------------|
E|-----------------------------------------------|
C|-----------------------------------------------|
G|--/3~---1--3------------/3~---1--3------/6~----|
D|--------------4~---1~---------------4~---------|
A|-----------------------------------------------|
                                                      x2 then slide out
A|-----------------------------------------------|
E|-----------------------------------------------|
C|-----------------------------------------------|
G|--3~---1--3-----------------------------/6~----|
D|-------------4~---1--4--3~---1--3--4~----------|
A|-----------------------------------------------|



Riff 7 (Lead) (Expect, the unexpected...)
A|-----------------------------------------------------------------------|
E|-----------------------------------------------------------------------|
C|-----------------------------------------------------------------------|
G|---------------3-3-3-3-3-3-3-------------------------------------------|
D|-3-3-3-3-3-3-3---------------1-1-1-1-1-1-1-3-3-3-3-3-3-3-4-4-4-4-4-4-4-|
A|-----------------------------------------------------------------------|
                                                                          x2
A|-------------------------------------------------------------------------|
E|-------------------------------------------------------------------------|
C|-------------------------------------------------------------------------|
G|-------------------------------------------{3-3-3-3-3-3-3-3-3-3-3-3-3-3}-|
D|-4-4-4-4-4-4-4-[1-1-1-1-1-1-1-1-1-1-1-1-1-1]-----------------------------|
A|-------------------------------------------------------------------------|

Substitute what is in [these brackets] for what is in {these brackets}
on repeat

Riff 7 (Chords) (We grow stronger, by the second...)
A|-------------------------------------------------|
E|-------------------------------------------------|
C|-------------------------------------------------|
G|--------------.-----------------.-----------.----|
D|-10-10-10-10-10----10-10-10-10-10----11-11-11----|
A|-8--8--8--8--8-----8--8--8--8--8-----9--9--9-----|
   PM-----------|    PM-----------|    PM-----|
                                                       x2
A|-----------------------------------------|
E|-----------------------------------------|
C|-----------------------------------------|
G|---------.------------.---------.--------|
D|-6-6-6-6-6----6-6-6-6-6----[8-8-8]--{\}--|
A|-4-4-4-4-4----4-4-4-4-4----[6-6-6]--{\}--|
   PM-------|   PM-------|    PM---|

Substitute what is in [these brackets] for what is in {these brackets}
on repeat


Riff 2 x6

Then play the following:
A|--------------------------------------------|
E|--------------------------------------------|
C|-----------.----------------.---.---.---.---|
G|-7----7/10-7----7--7--7--7--6---6---3---3---|
D|-7----7/10-7----7--7--7--7--6---6---3---3---|
A|-5----5/8--5----5--5--5--5--4---4---1---1---|
             ^       ^     ^      

A|------------------------------------|
E|------------------------------------|
C|---------.------------8-------------|
G|-7--7/10-7----7--7----6------8------|
D|-7--7/10-7----7--7----6------8------|
A|-5--5/8--5----5--5-----------6------|
           ^       ^           ^               


Riff 1 (same as second time)


Riff 1 (Pt.A) x 8 (Your lepper, Messiah...)


Bridge 2
A|-----------------------------------------------------------|
E|-----------------------------------------------------------|
C|-----------------------------------------------------------|
G|------------------------------------------------------.----|
D|-1---1---1---1-1-1-1-1--2---2---2---2-2-2-2-2-2-2-2-2-2----|
A|-----------------------------------------------------------|


Riff 8 (What have I done?)
A|---------------------------------------------------|
E|---------------------------------------------------|
C|---------------------------------------------------|  
G|---------8--8---8--7--------------3--3---3--4------|   x4 then slide out
D|---------6--6---6--5--------------1--1---1--2------|
A|-0-0-0-0------------------0-0-0-0------------------|
   PM-----|                 PM-----|


Riff 9
A|-----------------------------------------------------------------|
E|-----------------------------------------------------------------|
C|-----------------------------------------------------------------|
G|-----------------------------------------------------------------| x4
D|-4-4-4-4-5-4-4-4-8-4-4-4-5-4-4-4-5-5-5-5-8-8-8-7-7-7-5-5-4-4~----|
A|-----------------------------------------------------------------|
   PM-----|  PM---|  PM---|  PM-----------------------------|


Riff 10
A|-----------------------------------------------------------------|
E|-----------------------------------------------------------------|
C|-----------------------------------------------------------------|
G|-----------------------------------------------------------------| x4 then
D|-----------------------------------------------------------------|   slide
A|-3h5-5-5-5-5-5-5-5h6-6-6-6-6-6-6-6h8-8-8-8-8-8-8-8h9-9-9-9-9-9-9-|    out
       PM---------|    PM---------|    PM---------|    PM---------|


---Piano Interlude---


Bridge 3 (I die...)
A|-------------------------------|
E|-------------------------------|
C|-------------------------------|
G|-10----10----10----9---9---\---| 
D|-10----10----10----9---9---\---|
A|-8-----8-----8-----7---7---\---|

..........................................
                                         .
Bridge 1 (Pt.A) x1                       .
                                         . 
                                         .
Variation of Bridge 1                    .
A|---------------------------------|     .
E|---------------------------------|     .  x2     
C|---------------------------------|     .      
G|--------------10--------8--------|     .                
D|-----x8-------10--------8--------|     .      
A|-(0-0-0-0)----8---------6--------|     .      
    PM-----|                             .
                                         .
..........................................


Riff 2 x4


Variation of Riff 2
A|---------------------------------------------|
E|---------------------------------------------|
C|-----------.---------------------------------|
G|-7----7/10-7----7--7--------------------3~---| x3
D|-7----7/10-7----7--7-------------------------|
A|-5----5/8--5----5--5----4---7-5-4-1-(0)------|
             ^       ^                PM           

Play what is (in these brackets) on third repeat


Ending (As I celebrate, His second death.)
A|-------------------------------------------|
E|-------------------------------------------|
C|-----------.-------------8-----------.-----|
G|-7----7/10-7----7--7-----8-----8-----7-----| END
D|-7----7/10-7----7--7-----6-----8-----7-----|
A|-5----5/8--5----5--5-----------6-----5-----|
             ^       ^           ^               

Tap to rate this tab
 
# A B C D E F G H I J K L M N O P Q R S T U V W X Y Z