The Project Hate Mcmxcix - Resurrected For Massive Torture tab

SONG: Resurrected for Massive Torture
ARTIST: The Projcet Hate MCMXCIX
ALBUM : Armageddon March Eternal - Symphonies of Slit Wrists

Tuning (High to Low): A-E-C-G-D-A (A STANDARD)

PM- Palm mute     * - Pinch Harmonic             ^ - strum upwards
\ - Slide down    > - let ring                   = - tremelo picking
/ - Slide up      h - hammer on
~ - Vibrato       p - pull off
w - wide vibrato  b(1/4) - Bend (step)
. - Stoccato      br(1/4) - Bend release (step)    


========== Industrial Intro ===========
    

Riff 1A (Pt.A)
A|---------------------------------------------|
E|---------------------------------------------|
C|---------------------------------------------|
G|--7~----7--5h7--7~----7--5h7--7b(1/2)--7--5--|
D|---------------------------------------------|
A|---------------------------------------------|

Riff 1A (Pt.B)                                          x2
A|-------------------------------------|
E|-------------------------------------|
C|-------------------------------------|
G|-8~----8--8--7--7~-------------------|
D|---------------------/8--8-/5--5~----|
A|-------------------------------------|


.......................................................
                                                      .
                                                      .
Played under Riff 1 Lead:                             .
                                                      .
Riff 1A (Pt.A)                                        .
Riff 1A (Pt.B)                                        .
Riff 1A (Pt.A)                                        .
                                                      .
Riff 1B                                               .
A|---------------------------------------------|      .     
E|---------------------------------------------|      .
C|---------------------------------------------|      .
G|-8~----8--8--10--7~----------12--12\---------|      .
D|-----------------------8--8------------/-\---|      .
A|---------------------------------------/-\---|      .
                                                      .
                                                      .
.......................................................


Riff 1 Lead
(Pt.A)
A|------------------------------------------|
E|------------------------------------------|
C|--9~----9--7/9--9~-------7/9--9/12--9~----|
G|----------------------10------------------|
D|------------------------------------------|
A|------------------------------------------| 

(Pt.B)                                                         
A|--------------------------------------------|     Riff 1 Lead Sequence:
E|--------------------------------------------|     Pt.A
C|-10~----10--10/12---------------------------|     Pt.B
G|-------------------12~---10--10--12--12~----|     Pt.A
D|--------------------------------------------|     Pt.C
A|--------------------------------------------|

(Pt.C)                                                        
A|---------------------------------------------|
E|---------------------------------------------|
C|-12~----12--12/14--10~-----------------------|
G|---------------------------------------------|
D|---------------------------------------/-\---|
A|---------------------------------------/-\---|


This next part sounds best with two guitars. The notes without brackets and
with the palm mutes are one guitar, and the ones in [these brackets] are 
another guitar with no palm mutes.

Riff 2 (Pt.A) (You condemned me to this life...)
A|------------------------------------------------------------------|
E|------------------------------------------------------------------|
C|[9-9-9-9-9-9-9-9-4-4-4-4-4-4-4-4-11-11-11-11-11-11-11-11-11-11-11]|
G|[7-7-7-7-7-7-7-7-2-2-2-2-2-2-2-2-9--9--9--9--9--9--9--9--9--9--9-]|
D|-7-7-7-7-7-7-7-7-2-2-2-2-2-2-2-2-9--9--9--9--9--9--9--9--9--9--9--|
A|-5-5-5-5-5-5-5-5-0-0-0-0-0-0-0-0-7--7--7--7--7--7--7--7--7--7--7--|
   PM-------------------------------------------------------------|

Riff 2 (Pt.B) Riff 2 (Pt.C)                 Riff 2 Sequence:
A|-----------|------------------|           Pt.A
E|-----------|------------------|           Pt.B
C|[4-4-4-4-4]|[4>--------------]|           Pt.A
G|[2-2-2-2-2]|[2>--------------]|           Pt.C
D|-2-2-2-2-2-|-2----2-2-2-2--2--|           Pt.A
A|-0-0-0-0-0-|-0----0-0-0-0--0--|           Pt.B 
   PM-------------------------|             Pt.D                
                                            
Riff 2 (Pt.D)
A|-----------------------------------------------------------------|
E|-----------------------------------------------------------------|
C|[9-9-9-9-9-9-9-9-4-4-4-4-4-4-4-4-7-7-7-7-7-7-7-7-4-4-4-4-4]------|
G|[7-7-7-7-7-7-7-7-2-2-2-2-2-2-2-2-5-5-5-5-5-5-5-5-2-2-2-2-2]------|
D|-7-7-7-7-7-7-7-7-2-2-2-2-2-2-2-2-5-5-5-5-5-5-5-5-2-2-2-2-2-2-\---|
A|-5-5-5-5-5-5-5-5-0-0-0-0-0-0-0-0-3-3-3-3-3-3-3-3-0-0-0-0-0-0-\---|
   PM-------------------------------------------------------|

 
Riff 3 (Pt.A) (The ones to follow...)       Riff 3 (Pt.B)
A|--------------------------------------|  |---------------------------|
E|--------------------------------------|  |---------------------------|
C|--------------------------------------|  |---------------------------|
G|--------------------------------------|x7|---------------------------|x1
D|-----------------*-----------*--------|  |--------------3--5--6\-[\]-|
A|--0--0--1--0--0--3b(1/2)--0--2b(1/2)--|  |--0--0--1--0--1--3--4\-[\]-|
    PM-----------|                            PM--------------|

Play all together twice, and what is in [these brackets] only on second time


Riff 2 Sequence: Same, but substitute Pt.C for Pt.B


========== Industrial Interlude =========== 

Within the interlude, play this twice:

Bridge 1
A|----------|
E|----------|
C|----------|
G|-3>-------|
D|-3>-------|
A|-1>-------|

And then this riff compliments the interlude:

Riff 4 - Pick slide in - (I'm on my knees...)
A|-----------------------------------|
E|-----------------------------------|
C|----.-------.--------.-------.-----|
G|--3-3---3-3-3------3-3---3-4-4-----| x8 Then slide out
D|--3-3---3-3-3------3-3---3-4-4-----|
A|--1-1---1-1-1------1-1---1-2-2-----|


Riff 5 (Pt.A) (March eternal, birth of...)     Riff 5 (Pt.B)                                
A|--------------------------------------------|--------------------|
E|--------------------------------------------|--------------------|
C|--------------------------------------------|--------------------|
G|------------.-------------.--------------.--|--------------------|
D|--3---------3----3--3--3--3----3---------3--|--4--4--4--4--4--4--|
A|--1--1-1-1--1----1--1--1--1----1--1-1-1--1--|--2--2--2--2--2--2--|
    PM---------|   PM--------|   PM---------|    PM--------------|

Riff 5 (Pt.C)    Riff 5 (Pt.D) Riff 5 (Pt.E)
A|--------------|-------------|--------------|
E|--------------|-------------|--------------|
C|--------------|-------------|--------------|
G|-----------.--|--------.----|-----------4--|
D|--3--3--3--3--|--3--3--3----|--3--3--3--4--|
A|--1--1--1--1--|--1--1--1----|--1--1--1--2--|
    PM--------|    PM-----|      PM-----|

Riff 5 Sequence:
......
Pt.A
Pt.B
Pt.A   x2
Pt.C
......


Second Guitar plays under Riff 5B:
Riff 5 Sequence:
Pt.A
Pt.B
Pt.A
Pt.D
Pt.A
Pt.B
Pt.A
Pt.E


Riff 5B (Pt.A) (Death eternal, death of...)      Riff 5B (Pt.B)
A|----------------------------------------------|--------------------|
E|----------------------------------------------|--------------------|
C|----------------------------------------------|--------------------|
G|------------3-------------3~-------------3----|-/4--4--4--4--4--4--|
D|--3------------4-3--3--3-------3------------4-|--------------------|
A|--1--1-1-1-------1--1--1-------1--1-1-1-------|--------------------|
    PM------|      PM----|       PM---------|  

Riff 5B (Pt.D)  Riff 5B (Pt.E)
A|-------------|--------------|   Riff 5B sequence is the exact same
E|-------------|--------------|   as the the second guitar sequence
C|-------------|--------------|  
G|--------.----|-----------4--|
D|--3--3--3----|--3--3--3--4--|
A|--1--1--1----|--1--1--1--2--|
    PM-----|      PM-----| 


Riff 6A (Our love wither here...)
A|------------------------------|
E|------------------------------|
C|------------------------------|
G|------------------------------|      x2
D|--3~-----/7~-----2~-----/7~---|
A|------------------------------|

Riff 6B (You wear the crown of thorns...)
A|----------------------------------------------------------|
E|----------------------------------------------------------|
C|----------------------------------------------------------|
G|--/8---5~----8---7~----------7---7~----7---7~----/8---5~--|
D|-----------------------8~---------------------------------|
A|----------------------------------------------------------|

A|-------------------------------------------------|
E|-------------------------------------------------|
C|-------------------------------------------------|
G|--/8---5~----8---7~----------7---/10~----7~------|
D|-----------------------8~------------------------|
A|-------------------------------------------------|


Bridge 2
A|---------------|
E|---------------|
C|---.---.---.---|
G|---7---7---7---|
D|---7---7---7---|
A|---5---5---5---|


Riff 7 (You will not feel pain near the end...)
A|-------------------------------------------------|
E|-------------------------------------------------|
C|-------------------------------------------------|
G|--3>-----8>-----6>----------3>-----6>-----8>-----|    x2
D|--3>-----8>-----6>----[3-3]-3>-----6>-----8>-----|
A|--1>-----6>-----4>----[1-1]-1>-----4>-----6>-----|
                         PM-|

Play what is in [these brackets] on second time


.............................................................................

Solo by Petter S. Freed

PART I
A|-------------------------------------------------------------|
E|-------------------------*-----------------------------------|
C|-------------------------13w------12-13-15~---13h15p13-12~---|
G|--/10~\----/6-------/10-------/10----------------------------|
D|--------------8~---------------------------------------------|
A|-------------------------------------------------------------|

A|------------------------------------------------------------------------|
E|------16---------16--------------------13-------------------------------|
C|--/15----15-13~-----15-13~---10~---/10----10-13-10-13-15br(1)--13-10~---|
G|------------------------------------------------------------------------|
D|------------------------------------------------------------------------|
A|------------------------------------------------------------------------|

A|-----------------------|
E|-----------------------|
C|--/10-8----------------|
G|--------8br(1)-6~------|
D|-----------------------|
A|-----------------------|

PART II
A|--------------------|    |------------------------|
E|-18p13h18p13--------|    |--13h14h16p13-16p14p13--|
C|-------------15h17--|    |------------------------|
G|--------------------| x8 |------------------------|
D|--------------------|    |------------------------|
A|--------------------|    |------------------------|

PART III
A|----13-16-15-13-----------------------------------------------------------|
E|-13-------------16-14-13-14-16-14-13---------------------*----------------|
C|-------------------------------------15-13b(1)-----13-15-15w--15w--15w----|
G|------------------------------------------------15------------------------|
D|--------------------------------------------------------------------------|
A|--------------------------------------------------------------------------|

PART IV
A|-----------------------------------------------------|
E|------------------------9--8~---9-/16--13w---16w-----|
C|-/10~\----/8--10--10~--------------------------------|
G|-----------------------------------------------------|
D|-----------------------------------------------------|
A|-----------------------------------------------------|

PART V
A|-----------------13-15-16-15-13-/20======20\---|
E|--16-14-13-14-16-------------------------------|
C|-----------------------------------------------|
G|-----------------------------------------------|
D|-----------------------------------------------|
A|-----------------------------------------------|

.............................................................................


Rythm under solo:
Riff 7 x2 (Remember to play the brackets on second time!)


Riff 3 (Pt.A) x7
Riff 3 (Pt.B) 
Riff 3 (Pt.A) x4


Riff 3 (Pt.C) 
A|---------------------------|  
E|---------------------------| 
C|---------------------------| 
G|---------------------------|
D|-----------------*-----*---|  
A|--0--0--1--0--0--3w-w--2w--|  
    PM-----------|   


Riff 3 (Pt.B) END
Tap to rate this tab
 
# A B C D E F G H I J K L M N O P Q R S T U V W X Y Z