Song name
# A B C D E F G H I J K L M N O P Q R S T U V W X Y Z

The Project Hate Mcmxcix - See The Filth Become Flames In This Furnace tab

SONG: See the Filth Become Flames In This Furnace
ARTIST: The Projcet Hate MCMXCIX
ALBUM : The Lustrate Process

Tuning (High to Low): A-E-C-G-D-A (A STANDARD)

PM- Palm mute     * - Pinch Harmonic             ^ - strum upwards
\ - Slide down    > - let ring                   x - pick slide
/ - Slide up      h - hammer on
~ - Vibrato       p - pull off
w - wide vibrato  b(1/4) - Bend (step)
. - Stoccato      br(1/4) - Bend release (step)


Intro (Pt.A)         Intro (Pt.B)         Intro (Pt.C)  
A|------------------|--------------------|------------------------|
E|------------------|--------------------|------------------------|
C|------------------|--------------------|------------------------|
G|--4----------4>---|-----------4---3~---|-----------4---/6--6~---|
D|--4----4--4--4>---|-5-4-4--4-----------|-5-4-4--4---------------|
A|--2----2--2--2>---|--------------------|------------------------|
         PM--|

Intro (Pt.D)                                  Intro Sequence:
A|----------------------------------------|   Pt.A 
E|----------------------------------------|   Pt.B
C|----------------------------------------|   Pt.A
G|--4----------2>-------------------------|   Pt.C     x2
D|--4----4--4--2>---2--4---5--4--2---5~---|   Pt.A
A|--2----2--2--0>-------------------------|   Pt.B
         PM--|                                Pt.D


Riff 1
A|-----------------------------------------------------------------|
E|-----------------------------------------------------------------|
C|----------------------------------------------------------*------|
G|-2-2-5-5-2-2-6-6-5-5-2-2-5-5-2-2-2-2-5-5-2-2-6-6-5-5-2-2-[3w]----|
D|---------------------------------------------------------{3w}----|
A|-----------------------------------------------------------------|
                                                                       x4
A|-----------------------------------------------------------------|
E|-----------------------------------------------------------------|
C|----------------------------------------------------------*------|
G|-2-2-5-5-2-2-6-6-5-5-2-2-5-5-2-2-1-1-4-4-1-1-5-5-4-4-1-1-[2w]----|
D|---------------------------------------------------------{3w}----|
A|-----------------------------------------------------------------|

On 2nd and 3rd time substitute what is in [these brackets]
for what is in {these brackets}


Riff 2 (Pt.A) (Come sun, come blood, come carnage...)
A|--------------------------------------------|
E|--------------------------------------------|
C|-----------------1--2--4~---1--2------------|
G|------2--1--2~--------------------3~---2~---|
D|-2------------------------------------------|
A|--------------------------------------------|

Riff 2 (Pt.B)
A|--------------------------------------------|
E|--------------------------------------------|
C|-----------------1--2--4~---5--4h5p4--2--1--|
G|------2--1--2~------------------------------|
D|-2------------------------------------------|
A|--------------------------------------------|

Riff 2 (Pt.C)                            
A|--------------------------------|      Riff 2 Sequence:
E|--------------------------------|      Pt.A
C|--2~---4~---5--------/5~---4~---|      Pt.B     x2
G|----------------3~--------------|      Pt.A
D|--------------------------------|      Pt.C
A|--------------------------------|


Bridge 1 (Death!)
A|----------------------------------------------------|
E|----------------------------------------------------|
C|----------------------------------------------------|
G|-2----------------------3-6---------------------3-2-|
D|-2----------------------3-6---------------------3-2-|
A|-0-0-0-0-0-0-0-0-0-0-0--1-4-0-0-0-0-0-0-0-0-0-0-1-0-|
     PM-----------------|    PM-----------------|

A|----------------------------------------------------------|
E|----------------------------------------------------------|
C|----------------------------------------------------------|
G|----------------------3-6-----------------------2---2-3-6-|
D|----------------------3-6-----------------2-3-5---5-------|
A|-0-0-0-0-0-0-0-0-0-0--1-4-0-0-0-0-0-0-0-0-----------------|
   PM-----------------|    PM--------------|

A|------------------------------------------------------|
E|------------------------------------------------------|
C|------------------------------------------------------|
G|-2----------------------3-6-2-------------------3-2-3-|
D|-2----------------------3-6-2-------------------3-2-3-|
A|-0-0-0-0-0-0-0-0-0-0-0--1-4-0-0-0-0-0-0-0-0-0-0-1-0-1-|
     PM-----------------|       PM---------------|

A|------------------------------------|
E|------------------------------------|
C|------------------------------------|
G|-----------------------3-6-2--------|
D|-----------------------3-6-2---/-\--|
A|--0-0-0-0-0-0-0-0-0-0--1-4-0---/-\--|
    PM-----------------|       
 

Riff 3 (I put my trust in eternal destruction!)
A|--------------------------------------------------|
E|--------------------------------------------------|
C|--------------------------------------------------|
G|--------------------------------------------------|
D|--------------------------------------------------|
A|-0-0-0-0-0-0-0-0-0-0--1-4-0-0-0-0-0-0-0-0-0-0-1-0-|
   PM-----------------|    PM-----------------|

A|----------------------------------------------------------|
E|----------------------------------------------------------|
C|----------------------------------------------------------|
G|------------------------------------------------2---2-3-6-|
D|------------------------------------------2-3-5---5-------|
A|-0-0-0-0-0-0-0-0-0-0--1-4-0-0-0-0-0-0-0-0-----------------|
   PM-----------------|    PM--------------|

A|------------------------------------------------------|
E|------------------------------------------------------|
C|------------------------------------------------------|
G|------------------------------------------------------|
D|---------------------------------------------------.--|
A|--0-0-0-0-0-0-0-0-0-0--1-4-0-0-0-0-0-0-0-0-0-0-1-0-1--|
    PM-----------------|       PM---------------|

(See your saviour fear our work)
A|----------------------------|
E|----------------------------|
C|----------------------------|
G|----------------------------|
D|-------------.--------------|
A|---------1-4-0---------x\---|


Riff 4 
A|----------------------------------------------|
E|----------------------------------------------|
C|----------------------------------------------|
G|-----------------/3--6----------------/7--6---|
D|----------------------------------------------|
A|--0--0--0--0--0--------0--0--0--0--0----------| 
                                                             x2
A|----------------------------------------------------|
E|----------------------------------------------------|
C|----------------------------------------------------|
G|----------------------------------------------------|
D|--------------------------------------6--6--10--10--|
A|--1--1--1--4--1--1--1--4--4--4--4--5----------------|  


A|----------------------------------------------------|
E|----------------------------------------------------|
C|----------------------------------------------------|
G|--------------------/3--6-------------------/7--6---|
D|----------------------------------------------------|
A|--0--0-0-0-0-0-0-0--------0--0-0-0-0-0-0-0----------| 
    PM--------------|       PM--------------|                     x2
                                                                 
A|------------------------------------------------------------|
E|------------------------------------------------------------|
C|------------------------------------------------------------|
G|------------------------------------------------------------|
D|---------------------------------------------[6--6--10--10]-|
A|--1--1-1-1-1-4--1--1-1-1-1-4--4--4-4-4-4-5---{\}------------|  
    PM--------|   PM--------|   PM--------|    

On repeat, substitute what is in [these brackets]
for what is in {these brackets} 


Riff 5 (We are slaughter...)
A|---------------------------------------------------------------|
E|---------------------------------------------------------------|
C|---------------------------------------------------------------|  x2 
G|-11----7---10-11----7-11br(1/2)--7-5----8--5--6--5----8--5--6--|    
D|-11----7---10-11----7-11br(1/2)--7-5----8--5--6--5----8--5--6--| 
A|-9-----5---8--9-----5-9br(1/2)---5-3----6--3--4--3----6--3--4--|    


.............................................................................

Solo by Henry Pyykko
Tuning (High to Low): E-B-G-D-A-E (STANDARD)

PART I
E|-------------------------------------|
B|-14p10----------10h15p10----------10-|
G|-------11----11----------11----11----| x4
D|----------12----------------12-------|
A|-------------------------------------|
E|-------------------------------------|

(C Maj)
E|-15p12----------------------12h15p12-[12h15p12]-|    
B|-------13----------------13---------------------|    
G|----------12----------12------------------------| x2 
D|-------------14----14---------------------------|    
A|----------------15------------------------------|    
E|------------------------------------------------|

Notes in [these brackets] = play first time only

PART II
E|-15br(1)--------14--13b(1)------|
B|------------14------------------|
G|--------------------------------|
D|--------------------------------|
A|--------------------------------|
E|--------------------------------|    

E|------------12--13b(1)w----12/14-15-17-15-14----------------------------|
B|--13---12------------------------------------17-15-14----14b(1/2)whammy-|
G|------------------------------------------------------16----------------|
D|------------------------------------------------------------------------|
A|------------------------------------------------------------------------|
E|------------------------------------------------------------------------|

PART III (C Maj)
E|-15p12----------------------12h15p12-15br(1)----13--15--14b(1/2)w----|    
B|-------13----------------13------------------------------------------|    
G|----------12----------12---------------------------------------------| 
D|-------------14----14------------------------------------------------|    
A|----------------15---------------------------------------------------|    
E|---------------------------------------------------------------------|

E|--15--17--18--20br(1)w----|
B|--------------------------|
G|--------------------------|
D|--------------------------|
A|--------------------------|
E|--------------------------|

.............................................................................


Rythm under solo: 
Riff 5 x2


Intro (Pt.A)
Intro (Pt.B)


Bridge 2         
A|---------------------------------------|
E|---------------------------------------|
C|---------------------------------------|
G|--4----------4>----/4------------------|  x2
D|--4----4--4--4>--------5--4--2----5----|
A|--2----2--2--2>------------------------|
         PM--|    

A|---------------------------------------------|
E|-----------------------------------------*---|
C|-------------------5--5-5----------------5w--|
G|--4----------2>-----------6--5--3h5p3-2------|
D|--4----4--4--2>------------------------------|
A|--2----2--2--0>------------------------------|
         PM--|          


.............................................................................

Solo by Mike Wead
Tuning (High to Low): E-B-G-D-A-E (STANDARD)

PART I
E|-15/17--17--17--17\13--13--13--13/15--15--15--15\12--12--12--|
B|-------------------------------------------------------------|
G|-------------------------------------------------------------|
D|-------------------------------------------------------------|
A|-------------------------------------------------------------|
E|-------------------------------------------------------------|

E|-13-12-10-12-10----------------------------------------|
B|----------------14-11-14-14-11-10-14-11-10-------------|
G|-------------------------------------------12-10-------|
D|-------------------------------------------------14~---|
A|-------------------------------------------------------|
E|-------------------------------------------------------|

PART II
E|-------------15-19-18b(1/2)~---18-17-15----------------------------------|
B|----------14----------------------------18-17-15-------18-17-15----------|
G|-------15----------------------------------------17-15----------17-15-14-|
D|-14/17-------------------------------------------------------------------|
A|-------------------------------------------------------------------------|
E|-------------------------------------------------------------------------|

E|----14-15-14--------------------|
B|-17----------17-15-14----14~----|
G|----------------------17--------|
D|--------------------------------|
A|--------------------------------|
E|--------------------------------|

PART III
E|----------------------------------10-12-13-18-17-15----------|
B|-------------------------10-11-13-------------------18-17~---|
G|----------12-14-15-14~---------------------------------------|
D|-12-14-15----------------------------------------------------|
A|-------------------------------------------------------------|
E|-------------------------------------------------------------|

E|----------------15-17-18-18-17-15------------------------|
B|-18-17-15-17-18-------------------18-17-15---------------|
G|-------------------------------------------17-15-14~-----|
D|---------------------------------------------------------|
A|---------------------------------------------------------|
E|---------------------------------------------------------|

.............................................................................
 

Rythm under solo:
Riff 4 (this goes right into "Forgiveness, not to be found...")
However, this time do not substitute any brackets, and end on this chord:

(The one!)
A|------|
E|------|
C|--.---|
G|--2---|
D|--2---|
A|--0---|


========== Techno Interlude ===========


Guitar part that breaks the interlude:

Riff 6
A|--------------------------------------------|
E|--------------------------------------------|
C|-----.---------.---------.------------------|  x2
G|--3--2------3--2------6--2------3--2--6--2--|
D|--3--2------3--2------6--2------3--2--6--2--|
A|--1--0----0-1--0----0-4--0----0-1--0--4--0--|
       ^    PM   ^    PM   ^    PM   ^     ^

A|------------------------------------------------------------------------|
E|------------------------------------------------------------------------|
C|--------.---------.---------.---------------------.---------.---.-------|
G|--3--2--2------3--2------6--2------3--2--6--2--3--2------3--2---2-------|
D|--3--2--2------3--2------6--2------3--2--6--2--3--2------3--2---2---[\]-|
A|--1--0--0----0-1--0----0-4--0----0-1--0--4--0--1--0----0-1--0---0---[\]-|
       ^       PM   ^    PM   ^    PM   ^     ^     ^    PM   ^

Play this all twice, do not play what is in [these brackets] on repeat


========== Techno Interlude continues ===========


Riff 2 (pick slide in)


Riff 1 (do not substitute brackets)


Riff 2 (Pt.A) END
Tap to rate this tab
 
# A B C D E F G H I J K L M N O P Q R S T U V W X Y Z