Song name
# A B C D E F G H I J K L M N O P Q R S T U V W X Y Z

The Project Hate Mcmxcix - Godslaughtering Murder Machine tab

SONG: Godslaughtering Murder Machine
ARTIST: The Projcet Hate MCMXCIX
ALBUM : Armageddon March Eternal - Symphonies of Slit Wrists

Tuning (High to Low): A-E-C-G-D-A (A STANDARD)

PM- Palm mute     * - Pinch Harmonic             ^ - strum upwards
\ - Slide down    > - let ring                   = - tremelo picking
/ - Slide up      h - hammer on
~ - Vibrato       p - pull off
w - wide vibrato  b(1/4) - Bend (step)
. - Stoccato      br(1/4) - Bend release (step)    


INTRO GTR.I
Pt.A          Pt.B                                      Pt.C
A|-----------|-----------------------------------------|--------|
E|-----------|-----------------------------------------|--------|
C|-----------|-----------------------------------------|--------|
G|-----------|----/7~-----8--5h7-----/7~---------------|--------|
D|-----------|---------6------------------6-{4~}-[1~]--|-6--\---|
A|--9--8--6--|-5------------------5--------------------|----\---|
    PM--|                                               

INTRO GTR.II
Pt.A                             Pt.B                              Pt.C
A|------------------------------|---------------------------------|-------|
E|------------------------------|---------------------------------|----*--|
C|---------9-------/9~---\------|-----9~----10--7h9----9~--8-6~---|----8w-|
G|--7--10------7----------------|-/7------8---------7-------------|-8-----|
D|-------------------------/-\--|---------------------------------|-------|
A|-------------------------/-\--|---------------------------------|-------|

For Pt.B, substitute {these brackets} for [these brackets] on 
every second time

INTRO SEQUENCE:

GTR.I:    GTR.II:
Pt.A      Pt.A
Pt.B x2   Slides done in Pt.A on last 2 notes GTR.I plays
Pt.B x2   Pt.B x2
Pt.D      Pt.D  

Pt.D enters for both guitars in substitution for the last two notes 
in their Pt.B's 
                

Riff 1 
Pt.A                      Pt.B     Pt.C     Pt.D            Pt.E
A|-----------------------|--------|--------|---------------|---------------|
E|-----------------------|--------|--------|---------------|---------------|
C|-----------------------|--------|--------|---------------|---------------|
G|-----7===--8==5h7=---7=|==------|==------|==5==8==5==7===|--6--5------3--|
D|--0==----6=-------0==--|--6==4==|--6==1==|---------------|--4--3--1-1-1--|
A|-----------------------|--------|--------|---------------|---------------|
                                                                    PM-|

Riff 1 Sequence:
Pt.A
Pt.B
PT.A
Pt.C
Pt.A
Pt.D
Pt.A
Pt.E


Riff 2 (Do you know what I am?)
Pt.A              Pt.B            Pt.C                      Pt.D      Pt.E        
A|---------------|---------------|-------------------------|---------|------|
E|---------------|---------------|-------------------------|---------|------|
C|---------------|---------------|-------------------------|---------|-.--.-|
G|-2--2----------|-3--2----------|-------------------------|--10-----|-10-10|
D|-0--0--0-0-0-0-|-1--0--0-0-0-0-|-8-8-8-4-4-4-3-3-3-4-4-4-|--8--8-8-|-8--8-|
A|---------------|---------------|-------------------------|---------|------|
         PM-----|        PM-----|                                PM-|

Riff 2 Sequence:
Pt.A x3
Pt.B          Repeat all, replace
Pt.A x2       Pt.D with Pt.E on    
Pt.C          second play
Pt.D


Riff 3 (Godslaughtering murder machine...)
Pt.A                           Pt.B
A|-----------------------------|-----------------------------|
E|-----------------------------|-----------------------------|
C|-----------------------------|-----------------------------|
G|-----------------------------|--------------------------5--|
D|---------4--4--4----------3--|---------4--4--4----------3--|
A|-0-0-0-0-2--2--2--0-0-0-0-1--|-0-0-0-0-2--2--2--0-0-0-0----|
   PM-----|         PM-----|     PM-----|         PM-----|

Pt.C
A|------------------------------------|
E|------------------------------------|
C|------------------------------------|
G|------------------------------------|
D|-----------------------6-------7----|
A|--/4--7-5-4-1-0---/4-4---4-5-5---5--|

Riff 3 Sequence:
Pt.A 
Pt.B   Play all together twice    
Pt.A
Pt.C


INTRO GTR.I Pt.B x4 (Sin, so you burn) 
Replace last note with slide out


Riff 4 (I am the goddess...)
Pt.A                          Pt.B            
A|---------------------------|-----------------------|
E|---------------------------|-----------------------|
C|---------------------------|-----------------------|
G|------.-----------------.--|-----------------------|
D|-[4]--4-------.--.------4--|-/5---4--2--0---2------|
A|-[2]--2---2-2-2--2--2-2-2--|-------------------3---|
            PM-----------|

Riff 4 Sequence:
Pt.A x2
Pt.A (Omit Brackets)     Play all together twice
Pt.B


Riff 3
A|-------------------------------------------------------------|
E|-------------------------------------------------------------| x2 play
C|--/7---6---4~----6br(1/2)w---/7---6---4~---------------------| brackets 
G|--------------------------------------------5---7--4~--[5~]--| only on
D|-------------------------------------------------------------| repeat
A|-------------------------------------------------------------| 


Riff 5
Pt.A
A|-----------------------------------------------|
E|--------------.---------------------------.----|
C|--7-7-7-7-7-7-7----7-7-7-7-7--8-8-8-8-8-8-8----|
G|--5-5-5-5-5-5-5----5-5-5-5-5--6-6-6-6-6-6-6----|
D|-----------------------------------------------|
A|-----------------------------------------------|
      ^   ^   ^        ^   ^      ^   ^   ^

A|----------------------------------------|
E|------------------------.---------------|
C|-8-8-8-8-8--7-7-7-7-7-7-7----7-7-7-7-7--|
G|-6-6-6-6-6--5-5-5-5-5-5-5----5-5-5-5-5--|
D|----------------------------------------|
A|----------------------------------------|
     ^   ^      ^   ^   ^        ^   ^

Pt.B                            Pt.C   Pt.D
A|-----------------------------|------|-------------------------------|
E|-------------.---------------|--.---|-------------------------------|
C|-3-3-3-3-3-3-3----3-3-3-3-3--|--3---|-------------------------.--.--|
G|-1-1-1-1-1-1-1----1-1-1-1-1--|--1---|-------------------------5--5--|
D|-----------------------------|------|-------------------------5--5--|
A|-----------------------------|------|-0-0-0-0-0-0-0-0-0-0-0-0-3--3--|
     ^   ^   ^        ^   ^             PM---------------------|

Riff 5 Sequence:
Pt.A
Pt.B         
Pt.A     
Pt.C

Play under Riff 5 Lead:
Pt.A    
Pt.B
Pt.A
Pt.D


Riff 5 Lead:
A|---------------------------------------------------------------------|
E|--------x4-------------x4-------------x4-----------------------------|
C|-[10h12--12-12]-[12h13--13-13]-[10h12--12-12]-15--15--15--13--{12~}--|x2
G|---------------------------------------------------------------------|
D|---------------------------------------------------------------------|
A|---------------------------------------------------------------------|

Play what is in {these brackets} only on second time


Riff 6
A|--------------------------------------------------------------------------|
E|--------------------------------------------------------------------------|
C|--------------------------------------------------------------------------|
G|--------------------------------------------------------------------------|
D|-----x3----------------x3----------------x3----------------x2--------x2---|
A|-[3-3-3-3]-3-3-3h4-[4-4-4-4]-4-4-4h5-[3-3-3-3]-3-3-1h3-[1-1-1-1]-[6-6-6-6]|
    PM----------|     PM----------|     PM----------|     PM---------------|

Play four times, on the third and fourth time play wihtout palm mute.


Riff 4


Riff 7 (Years of judgement days...)
Pt.A                         Pt.B
A|--------------------------|--------------------------|
E|--------------------------|--------------------------|
C|--------------------------|--------------------------|
G|--6--6--6--6--6--7--7--3--|--6--6--5--3--------3-----|
D|--4--4--4--4--4--5--5--1--|--4--4--3--1--6--6--1--4--|
A|--------------------------|--------------4--4-----2--|
    PM-----------------------------------------------|

Pt.C
A|--------------------------|
E|--------------------------|
C|--------------------------|
G|--------------------------|
D|--4--4--3--1--------1-----|
A|--------------4--4-----2--|

Riff 7 Sequence:
Pt.A x3
Pt.B
Pt.A x3
Pt.C


========== Industrial Interlude ===========


Riff 5B (As I kneel down before thee...)
Pt.A
A|--------------------------------------------------|
E|--------------.-----------------------------------|
C|--9-9-9-9-9-9-9----9-9-9-9-9-------------------.--|
G|--7-7-7-7-7-7-7----7-7-7-7-7--10-10-10-10-10-9-9--|
D|------------------------------8--8--8--8--8--7-7--|
A|--------------------------------------------------|
      ^   ^   ^        ^   ^       ^     ^     ^

Pt.B
A|----------------------------------------------------|
E|----------------------------------------------------|
C|-------------------------------.--------------------|
G|-9-9-9-9-9--10-10-10-10-10-10-10----10-10-10-10-10--|
D|-7-7-7-7-7--8--8--8--8--8--8--8-----8--8--8--8--8---|
A|----------------------------------------------------|
     ^   ^       ^     ^     ^           ^     ^

Pt.C
A|------------------------------------------|
E|------------------------------------------|
C|---------------------.--------------------|
G|--10-10-10-10-10-10-12----12-12-12-12-12--|
D|--8--8--8--8--8--8--10----10-10-10-10-10--|
A|------------------------------------------|
       ^     ^     ^           ^     ^   

Pt.D
A|------------------------------------------|
E|------------------------------------------|
C|--------------.---------------------------|
G|--9-9-9-9-9-9-9----9-9-9-9-9--------------|
D|--7-7-7-7-7-7-7----7-7-7-7-7--------------|
A|------------------------------------------|
      ^   ^   ^        ^   ^   

Riff 5B Sequence:
Pt.A
Pt.B
Pt.C         Play all together twice (the other time is under the lead)
Pt.A     
Pt.B
Pt.D


Riff 5B Lead
A|-----------------------------------------------------|
E|-----------------------------------------------------|
C|--/9------9----------7----7-9-10~--7~---14--16--17---|
G|-------7------7-9-10---10----------------------------|
D|-----------------------------------------------------|
A|-----------------------------------------------------|

A|----------------------------------------------------------------|
E|----------------------------------------------------------------|
C|--14-------14------------17----------10~--7~---14--16--17---9~--|
G|-------14-------14-14-14----14-14-14----------------------------|
D|----------------------------------------------------------------|
A|----------------------------------------------------------------|


Riff 8
Pt.A                                                      Pt.B
A|-------------------------------------------------------|-----------------|
E|-------------------------------------------------------|-----------------|
C|-------------------------------------------------------|-----------------|
G|--9-----9-----9---9-----12-------12----7-----7-----7---|-4-----4-----4---|
D|--7-7-7-7-7-7-7-7-7-7-7-10-10-10-10-10-5-5-5-5-5-5-5-5-|-2-2-2-2-2-2-2-2-|
A|-------------------------------------------------------|-----------------|
      PM-|  PM-|  PM  PM-|   PM---|   PM   PM-|  PM-|  PM    PM-|  PM-|  PM

Pt.C (Faster)
A|-------------------------------|
E|-------------------------------|
C|-------------------------------|
G|-4-------4-------4-------4--4--|
D|-2-2-2-2-2-2-2-2-2-2-2-2-2--2--|
A|-------------------------------|
     PM---|  PM---|  PM---|

Riff 8 Sequence:
Pt.A
Pt.B   
All together twice    


.............................................................................

Solo by Petter S. Freed

PART I
A|--------------------------------------------------------|
E|--12p8--------------------------------------------------|
C|-------9----7h9p7---------------------------------------|
G|---------10-------10-9-7-9-7----7-----------------------|
D|-----------------------------10---10-9--10~---9~---7~---|
A|--------------------------------------------------------|

PART II
A|------------------------------------------------|
E|------------------------------------------------|
C|------9-----11-------9----12~---11~---7~--------|
G|------------------------------------------------|
D|--/7-----7--------7------------------------/-\--|
A|-------------------------------------------/-\--|
                    
PART III
A|-----------------------------------------|
E|-----------------------------------------|
C|--------9~----------9-------11-----12~---|
G|----------------/7-----7/9------9--------|
D|--/7-------------------------------------|
A|-----------------------------------------|

PART IV
A|------------------------------------------------------|
E|------------------------------------------------------|
C|--14--14~--16~---12~----11--9h11p9-8--8h9p8-----*-----|
G|--------------------------------------------10--7~----|
D|------------------------------------------------------|
A|------------------------------------------------------|

.............................................................................


Rythm under solo:
Part 8 Sequence:
Pt.A    
Pt.B
Pt.A
Pt.C


Riff 1 Sequence:
Pt.A
Pt.B
Pt.A
Pt.C
Pt.A
Pt.B
Pt.A

Then Pt.F:
A|----------|
E|----------|
C|----------|
G|----------|
D|--6==/-\--|
A|-----/-\--|


Riff 2 Sequence:
Pt.A x3
Pt.B          
Pt.A x2           
Pt.C          
Pt.D
Pt.A x3
Pt.B

Then Pt.F:
A|-------------------------------------------------------------|
E|-------------------------------------------------------------|
C|-------------------------------------------------------------|
G|--------2-----------------2----------------------------------|
D|--0--0--0-0-0-0-0--0-0-0--0--8-8-8-4-4-4-3-3-3-4-4-4-8-8-8-8-|
A|-------------------------------------------------------------|
    PM--|   PM------------|

    
Riff 9 (The rebirth of the Apocalypse...)
Pt.A                  Pt.B                   Pt.C
A|-------------------|----------------------|-------------------|
E|-------------------|----------------------|-------------------|
C|-------------------|----------------------|-------------------|
G|-2------2-3-2------|-3p2--------2-------3-|-3p2--------3-6-\--|
D|-2-----------------|-----6-\------------3-|-----8-\-----[\--]-|
A|-0---0---------0-0-|---------0----6-\-0-1-|---------0---[\--]-|
       PM        PM-|          PM       PM            PM

Pt.D                     Pt.E
A|----------------------|-----|
E|----------------------|-----|
C|----------------------|-----|
G|---3-0-0-0-0-0-0-0-0--|-----|
D|-----0-0-0-0-0-0-0-0--|--\--|
A|-0---0-0-0-0-0-0-0-0--|--\--|
   PM  PM-------------|

Riff 9 Sequence:
Pt.A
Pt.B
Pt.A
Pt.C
Pt.D
Pt.B
Pt.A
Pt.C (GTR.II Plays [these brackets])
Pt.E


Riff 10A
A|-----------------------------------------|
E|-----------------------------------------|
C|-----------------------------------------|
G|-------------------------------------.---|
D|-------------------------------------3---|
A|--0========1========0========1=======1---|


Riff 10B (The fools have died...)
Pt.A                                       Pt.B  Pt.C
A|----------------------------------------|-----|-------|
E|----------------------------------------|-----|-------|
C|----------------------------------------|-.-.-|-.-.-.-|
G|----------------------------------------|-7-7-|-7-7-7-|
D|--7========5====7====8========7====5====|-7-7-|-7-7-7-|
A|----------------------------------------|-5-5-|-5-5-5-|

Riff 10B Sequence:
Pt.A x2
Pt.B
Pt.A x2
Pt.C


INTRO GTR.I Pt.B x1

Then Bridge:
A|--------|
E|--------|
C|--------|
G|--------|
D|--1--0--|
A|--------|


Riff 11
Pt.A                                Pt.B
A|---------------------------------|---------------|
E|---------------------------------|---------------|
C|--/12--9~------9--10--9--10--/13-|-10---12--9~---|
G|------------12-------------------|---------------|
D|---------------------------------|---------------|
A|---------------------------------|---------------|

Pt.C
A|---------------------------------------------13~---12~----|
E|--11--13-------------------------13~---14~----------------|
C|----------12~---10-12-13~-12~-10~-------------------------|
G|----------------------------------------------------------|
D|----------------------------------------------------------|
A|----------------------------------------------------------|


Riff 11 Sequence:
Pt.A
Pt.B
Pt.A
Pt.C  


Riff 6 x2 (No palm mutes) END
Tap to rate this tab
 
# A B C D E F G H I J K L M N O P Q R S T U V W X Y Z