The Project Hate Mcmxcix - Congregate tab

SONG: Congregate
ARTIST: The Projcet Hate MCMXCIX
ALBUM : Hate, Dominate, Congregate, Eliminate

Tuning (High to Low): A-E-C-G-D-A (A STANDARD)

PM- Palm mute     * - Pinch Harmonic             ^ - strum upwards
\ - Slide down    > - let ring                   x - pick slide
/ - Slide up      h - hammer on                  r - rest  
~ - Vibrato       p - pull off
w - wide vibrato  b(1/4) - Bend (step)
. - Stoccato      br(1/4) - Bend release (step)


Intro
GTR.I
Pt.A                    Pt.B
A|-----------------|   |----------------------------|
E|-----------------|   |----------------------------|   replace
C|-----------------|x1 |---------{*-}---------------|x7 [these brackets]
G|-7--6------------|   |-------6-{7w}---------------|   for
D|---------8--7----|   |-8--7----[7]---8--7--{/-\}--|   {these brackets}
A|-----------------|   |---------------------{/-\}--|   on 7th repeat

GTR.II (enters on GTR.I Pt.B's 4th repeat)
A|-----------------------|
E|-----------------------|
C|-----------------------|
G|-----------------------| x4 and slide out with GTR.I
D|-----------------------|
A|-1--0----4--0----1--0--|

TOGETHER:
GTR.II's riff played x8

SEPERATE:
GTR.I
Pt.A                            Pt.B                                 
A|-------------------------|   |-----------|       
E|-------------------------|   |-----------|      
C|-------------------------|   |-----------|    
G|-----.-------.--------.--|   |-----------|   
D|-0-0-0---0-0-0---[0-0-0]-|   |-0--r-0--r-|   
A|-0-0-0---0-0-0---[0-0-0]-|   |-0--r-0--r-|   
   PM--------------------|

GTR.II
Pt.A                            Pt.B
A|-------------------------|   |---------|
E|-------------------------|   |---------|
C|-------------------------|   |---------|
G|-------------------------|   |---------|
D|-------------------------|   |---------|
A|-1--0----4--0----[1--0]--|   |-0--1--0-|

SEPERATE Sequence:
Pt.A x4 OMIT [these brackets] on fourth repeat
Pt.B
PT.A x3

TOGETHER:
A|----------------|
E|----------------|
C|----------------|
G|--9--9--10--10--|
D|--9--9--10--10--|
A|--7--7--8---8---|


Riff 1
Pt.A
A|--------------------------------------------------------------------|
E|--------------------------------------------------------------------|
C|--------------------------------------------------------------------|
G|-------------------------9------------------------------------------|
D|-9-------9-------9-------7-------10-------10-------10---------------|
A|-7-0-0-0-7-0-0-0-7-0-0-0---0-0-0-8--0-0-0-8--0-0-0-8--0-0-0-8-7-5-7-|
     PM---|  PM---|  PM---|  PM---|   PM---|   PM---|   PM---|

Pt.B
A|------------------------------------------------------------------|
E|------------------------------------------------------------------|
C|------------------------------------------------------------------|
G|-------------------------9-------8-------8-------11---------------|
D|-9-------9-------9-------7-------6-------6-------9----------------|
A|-7-0-0-0-7-0-0-0-7-0-0-0---0-0-0---0-0-0---0-0-0----0-0-0-8-7-5-7-|
     PM---|  PM---|  PM---|  PM---|  PM---|  PM---|   PM---|

Pt.C
A|-----------------------------------------------------------------------|
E|-----------------------------------------------------------------------|
C|-----------------------------------------------------------------------|
G|-------------------------9-------10-----10-----10-----10-----10-----10-|
D|-9-------9-------9-------7-------8------8------8------8------8------8--|
A|-7-0-0-0-7-0-0-0-7-0-0-0---0-0-0----0-0----0-0----0-0----0-0----0-0----|
     PM---|  PM---|  PM---|  PM---|   PM-|   PM-|   PM-|   PM-|   PM-| 

Riff 1 Sequence:
Pt.A
Pt.B
Pt.A
Pt.C


Bridge
A|--------------------------------|
E|--------------------------------|
C|--------------------------------|
G|--------------------------------| x4
D|-----5-------5-----------6-.----|
A|-3-3---3-3-3---3-3-3-4-4---4----|


Riff 1 Sequence, but slide out


Riff 2 (The angel's blood will paint the sky...)
A|----------------------------------|
E|----------------------------------|
C|----------------------------------|
G|---7-9---9-10---7---7-9---7-9---6-|
D|-0-----0------0---8-----8-----7---|
A|----------------------------------|
   PM    PM     PM
                                                     x2
A|-----------------------------------------|
E|-----------------------------------------|
C|-----------------------------------------|
G|---7-9---9-10---7---7-9-10-9h10p9----6-9-|
D|-0-----0------0---8---------------12-----|
A|-----------------------------------------|
   PM    PM     PM


Riff 3
A|------------------------------------------------|
E|------------------------------------------------|
C|------------------------------------------------|
G|------------------------------------------------| x4
D|------------------------------------------------|
A|-4--0--4--7--4--0--5--7--4--0--4--7--4--0--5--4-|


Riff 4
Pt.A                            Pt.B            Pt.C                   
A|-------------------------|   |-----------|   |---------------------|
E|-------------------------|   |-----------|   |---------------------|   
C|-------------------------|   |-----------|   |---------------------|    
G|-----.-------.--------.--|   |-----------|   |-9-9-9-9-10-10-10-10-|   
D|-0-0-0---0-0-0---[0-0-0]-|   |-0--r-0--r-|   |-9-9-9-9-10-10-10-10-|   
A|-0-0-0---0-0-0---[0-0-0]-|   |-0--r-0--r-|   |-7-7-7-7-8--8--8--8--| 
   PM--------------------|

Riff 4 Sequence:
Pt.A x4 OMIT [these brackets] on fourth repeat
Pt.B
PT.A x3
Pt.C


Bridge x8


========== Techno Interlude ===========


Riff 5 (Slide in)
A|---------------------------------------------------------------------|
E|---------------------------------------------------------------------|
C|---------------------------------------------------------------------|
G|-9-------------------------9-----------------------------------------| x2
D|-9-------------------------9-----------------------9-9-7-7-----------|
A|-7--7-7-7--7--7-7-7--------7--7-7-7--7--7-7-7--------------11-11-8-8-|
      PM-------------|          PM-------------|


A|-----------------------------------------------------|
E|-----------------------------------------------------|
C|-----------------------------------------------------|
G|-9----------------------10--9------------------13-10-|
D|-9----------------------10--9------------------13-10-|
A|-7--7-7--7--7--7--7-7-7-8---7--7-7--7--7--7--7-11-8--|
      PM-----------------|       PM-------------|                    x2
                                                                      
A|-------------------------------------------------------------|
E|-------------------------------------------------------------|
C|-------------------------------------------------------------|
G|-9----------------------10--9--------------------------------|
D|-9----------------------10--9----------9-9-9-9-7-7-----------|
A|-7--7-7--7--7--7--7-7-7-8---7--7-7--7--------------11-11-8-8-|
      PM-----------------|       PM----|


A|-------------------------------------------------------------|
E|-------------------------------------------------------------|
C|-------------------------------------------------------------|
G|-------------------------------------------------------------|
D|-----------------------------------------------------6-6-----|
A|-5h7-7-7--7-5h7-7-7--7-5h7-8-8-5h7-7-7--7-5h7-7-7--7-----8-8-|
                                                                          x2
A|------------------------------------------------------------------|
E|------------------------------------------------------------------|
C|------------------------------------------------------------------|
G|------------------------------------------------------------------|
D|------------------------------------------9-9-9-9-----------------|
A|-5h7-7-7--7-5h7-7-7--7-5h7-8-8-5h7-7-7--7---------12-12-11-11-8-8-|


========== Techno Interlude 2 ===========


Riff 6
Pt.A                                     
A|-------------------------------------------|
E|-------------------------------------------|
C|-------------------------------------------|
G|-9----------9------------9-----------------|
D|-7----------7------7h9p7-7----------9------|
A|----0-0-0-0----0-0----------0-0-0-0-7--0-0-|
      PM-----|   PM-|         PM-----|   PM-|

Pt.B
A|-------------------------------------------------|
E|-------------------------------------------------|
C|-------------------------------------------------|
G|-------9-------------11------------9------10-9-7-|
D|-7h9p7-7------9h10p9-9-------7h9p7-7------10-9-7-|
A|----------0-0------------0-0----------0-0-8--7-5-|
            PM-|           PM-|         PM-|

Pt.C                        Pt.D
A|-------------------------|-----------------------------------------------|
E|-------------------------|-----------------------------------------------|
C|-------------------------|-----------------------------------------------|
G|-------9-----------------|-------9-------------11---------------12---8---|
D|-7h9p7-7----------9------|-7h9p7-7------9h10p9-9-------10h12p10-10---6--9|
A|----------0-0-0-0-7--0-0-|----------0-0------------0-0------------------7|
            PM-----|   PM-|           PM-|           PM-| 

Pt.E
A|--------------------------------------------------------|
E|--------------------------------------------------------|
C|--------------------------------------------------------|
G|-------9-------------11---------------12----------------|
D|-7h9p7-7------9h10p9-9-------10h12p10-10------7h9p7--9--|
A|----------0-0------------0-0--------------0-0--------7--|
             PM-|           PM-|             PM-|

Riff 6 Sequence:
PT.A
Pt.B
Pt.C x2
Pt.D
Pt.C x2
Pt.B
Pt.C x2
Pt.E
Pt.C x2
Pt.B
Pt.C x2
Pt.D


Riff 2 x2


Riff 2B
Pt.A
A|----------------------------------|
E|----------------------------------|
C|----------------------------------|
G|----------------------------------|
D|---7-9---9-10---7---7-9---7-9---6-|
A|-0-----0------0---8-----8-----7---|
   PM    PM     PM

Pt.B                                                    
A|-----------------------------------------|      Riff 2B Sequence:
E|-----------------------------------------|      Pt.A 
C|-----------------------------------------|      Pt.B
G|-----------------------------------------|      Pt.C
D|---7-9---9-10---7---7-9-10-9h10p9----6-9-|      Pt.B
A|-0-----0------0---8---------------12-----|
   PM    PM     PM

Pt.C
(Hate, Dominate, Congregate, Eliminate...)
A|----------------------------------------|
E|----------------------------------------|
C|--.---.---.---.---.---.-----------------|
G|--2---2---2---2---2---2-----------------|
D|--2---2---2---2---2---2---7-9---7-9---6-|
A|--0---0---0---0---0---0-8-----8-----8---|


Riff 1 x1


Bridge x4


Bridge 2
A|-----------------|
E|-----------------|
C|--6--------------|
G|--6------6---3---|
D|--4------6---3---|
A|---------4---1---|


Riff 7
A|----------------------------------------------|
E|----------------------------------------------|
C|----------------------------------------------|
G|----------------------------------------------| x11
D|----------------------------------------------|
A|-0----5--4--5--4--1----/5--4--1----1--4--1----|

A|----------------------------------|
E|----------------------------------|
C|----------------------------------|
G|-----------------------------.----|  END
D|-----------------------7--6--3----|
A|-0----5--4--5--4--1----5--4--1----|
Tap to rate this tab
 
# A B C D E F G H I J K L M N O P Q R S T U V W X Y Z