Song name
# A B C D E F G H I J K L M N O P Q R S T U V W X Y Z

The Project Hate Mcmxcix - At The Entrance Of Hells Unholy Fire tab

SONG: At the Entrance of Hell's Unholy Fire
ARTIST: The Projcet Hate MCMXCIX
ALBUM : Armageddon March Eternal - Symphonies of Slit Wrists

Tuning (High to Low): A-E-C-G-D-A (A STANDARD)

PM- Palm mute     * - Pinch Harmonic             ^ - strum upwards
\ - Slide down    > - let ring                   x - pick slide
/ - Slide up      h - hammer on                  r - rest  
~ - Vibrato       p - pull off
w - wide vibrato  b(1/4) - Bend (step)
. - Stoccato      br(1/4) - Bend release (step)   

 
Riff 1A (Once again, we bring armageddon...)
Pt.A
A|---------------------------------------------|
E|---------------------------------------------|
C|---------------------------------------------|
G|---------------------------------------------|
D|-7====---7====---8==6==7====---7====---8==4==|
A|------5==-----6==-----------5==-----6==------|

A|--------------------------------------|
E|--------------------------------------|
C|----------------------9\---2---2------|
G|-------------------6==7\---2---2------|
D|7====---7====---8==--------0---0------|
A|-----5==-----6==----------------------|

Pt.B            Pt.C
A|-------------|-------------|
E|-------------|-------------|
C|-------------|-------------|
G|-3--6--5--3--|-3--6------.-|
D|-3--6--5--3--|-3--6--2-2-2-|
A|-1--4--3--1--|-1--4--0-0-0-|
                       PM---|

Riff 1A Sequence:
Pt.A
PT.B
Pt.A
Pt.C
Pt.A
Pt.B
Pt.A
Pt.B


Bridge 1 (And as we entered hell's flames...)
GTR.I
A|-------------------------|
E|-------------------------|
C|-------------------------|
G|-7----------\--r---------|
D|-7----------\--r---------|
A|-5----------\--r---------|

GTR.II
A|---------------------------------------------------------------------|
E|---------------------------------------------------------------------|
C|-9-9-9-9-r---9-9-9-9-r---9-9-9-9-10-10-10-10-r---7-7-7-7-r---7-7-7-7-|
G|-7-7-7-7-r---7-7-7-7-r---7-7-7-7-8--8--8--8--r---5-5-5-5-r---5-5-5-5-|
D|---------------------------------------------------------------------|
A|---------------------------------------------------------------------|

TOGETHER
A|-------------------------------------------------|
E|-------------------------------------------------|
C|-9-9-9-9-r---9-9-9-9-r---9-9-9-9-10-10-10-10-r---|
G|-7-7-7-7-r---7-7-7-7-r---7-7-7-7-8--8--8--8--r---|
D|-------------------------------------------------|
A|-------------------------------------------------|


Riff 1B (Crushing, all that is holy...)
GTR.I
Pt.A
A|---------------------------------------------|
E|---------------------------------------------|
C|---------------------------------------------|
G|---------------------------------------------|
D|-7====---7====---8==6==7====---7====---8==4==|
A|------5==-----6==-----------5==-----6==------|

Pt.B
A|--------------------------------------|
E|--------------------------------------|
C|----------------------9------\-r------|
G|-------------------6==7------\-r------|
D|7====---7====---8==-------------------|
A|-----5==-----6==----------------------|

Pt.C
A|--------------------------------------|
E|--------------------------------------|
C|----------------------9-\r------------|
G|-------------------6==7-\r------------|
D|7====---7====---8==-------------/--\--|
A|-----5==-----6==----------------/--\--|

Riff 1B GTR.I Sequence:
Pt.A
Pt.B
Pt.A
Pt.C

GTR.II
Pt.A                                  Pt.B         Pt.C
A|-----------------------------------|------------|-----------------|
E|-----------------------------------|------------|-----------------|
C|-----------------------------------|------------|-----------------|
G|-----------------------------------|-7------\-r-|-7-\r------------|
D|-2-2-2-r---2-2-2-2-2-r---2-2-2-r---|-7------\-r-|-7-\r------/--\--|
A|-0-0-0-r---0-0-0-0-0-r---0-0-0-r---|-5------\-r-|-5-\r------/--\--|
   PM---|    PM-------|    PM---|

Riff 1B GTR.II Sequence:
Pt.A x3
Pt.B
Pt.A x3
Pt.C


Riff 1C
A|-------------------------------------------------------|
E|-------------------------------------------------------|
C|-------------------------------------------------------|
G|----------------------.--.-----------------------.--.--|
D|-7----------7------.--8--6--7-----------7------.-8--4--|
A|----5-5-5-5----5-5-6-----------5-5-5-5-----5-5-6-------|
      PM-----|   PM-|            PM-----|    PM-|
                                                               x2
A|--------------------------------------------------|
E|--------------------------------------------------|
C|-------------------------.--[9----\-]-------------|
G|----------------------.--6---7----\---3--6--5--3--|
D|-7----------7------.--8-----{7----\-}-3--6--5--3--|
A|----5-5-5-5----5-5-6--------{5----\-}-1--4--3--1--|
      PM-----|   PM-|

Anything in [these brackets] is GTR.I only
Anything in {these brackets} is GTR.II only
Anything outside of brackets is both guitars


Riff 2A
GTR.I
A|-------------------------------------------------------|
E|-------------------------------------------------------|
C|-----------------7-7-7--------------8-8-8-7---5--------|
G|------7-7-7------------5-5-7-7--------------------8~---|
D|-5----------5------------------6-----------------------|
A|-------------------------------------------------------|
                                                                       x2

A|---------------------------------------------------------------|
E|---------------------------------------------------------------|
C|-----------------7-7-7--------------8----12~----10h12p10-8~----|
G|------7-7-7------------5-5-7-7---------------------------------|
D|-5----------5------------------6-------------------------------|
A|---------------------------------------------------------------|

GTR.II
Pt.A
A|---------------------------------------------------------|
E|---------------------------------------------------------|
C|-7-7-7-7-r---7-7-7-7-r---7-7-7-7-8-8-8-8-r---5-5-5-5-r---|
G|-7-7-7-7-r---7-7-7-7-r---7-7-7-7-8-8-8-8-r---5-5-5-5-r---|
D|-5-5-5-5-r---5-5-5-5-r---5-5-5-5-6-6-6-6-r---3-3-3-3-r---|
A|---------------------------------------------------------|

Pt.B       Pt.C       Pt.D            
A|--------|----------|------|    Riff 2A GTR.II sequence:
E|--------|----------|------|    Pt.A
C|--3>----|----------|------|    Pt.B
G|--3>----|--3--3-r--|------|    Pt.A
D|--1>----|--1--1-r--|--\---|    Pt.C
A|--------|----------|--\---|    Pt.A
             PM--|               Pt.B
                                 Pt.A
                                 Pt.D


Riff 2B (We kill all life of the followers of the lies...)
GTR.I
A|-----------------------------------------------------------------|
E|-----------------------------------------------------------------|
C|-7~-----7--8--10~----8~----/12---7~-----7--8--10~----8~----/15---|
G|-----------------------------------------------------------------|
D|-----------------------------------------------------------------|
A|-----------------------------------------------------------------|

A|-----------------------------------------------------------------|
E|-----------------------------------------------------------------|
C|-7~-----7--8--10~----8~----/12---7~-----7--8--10\----------------|
G|-----------------------------------------------------------------|
D|-----------------------------------------------------------------|
A|-----------------------------------------------------------------|

GTR.II plays Riff 2A GTR.II sequence again

GTR.III
Pt.A
A|---------------------------------------------------------------------|
E|---------------------------------------------------------------------|
C|---------------------------------------------------------------------|
G|----------------------------triplet-------------------------triplet--|
D|-5-5-8-5r---5-8-5r---5-8-5-(5--6--8)--6-6-6-----6-6-6-----(6--8--10)-|
A|--------------------------------------------8---------8--------------|

Pt.B
A|-------------------------------------------------------------------------|
E|-------------------------------------------------------------------------|
C|-------------------------------------------------------------------------|
G|----------------------------triplet--------------------------------------|
D|-5-5-8-5r---5-8-5r---5-8-5-(5--6--8)--6-6-6-------6-6-6-------6-10-10-10-|
A|--------------------------------------------8-8-8-------8-8-8------------|

Pt.C                                                       
A|------------------------------------------------------|  Sequence:
E|--------------------------------------.--.--.---------|  Pt.A
C|--------------------------------------8--8--8--8--7---|  Pt.B
G|----------------------------triplet---8--8--8--8--7---|  Pt.A
D|-5-5-8-5r---5-8-5r---5-8-5-(5--6--8)--6--6--6--6--5---|  Pt.C
A|------------------------------------------------------|


Riff 3 (Father, what have I done to deserve this damned mortality?)
A|------------------------------|
E|-8--10----6~-----/8~----------|
C|------------------------------|  x8 (omit last note on 8th repeat and
G|------------------------------|      replace it with a slide!)
D|------------------------------|
A|------------------------------|


Riff 4 (So when I die, be brave...)
GTR.I
A|-------------------------------------------------------------------------|
E|-------------------------------------------------------------------------|
C|-10--8~----/13--12~---10h12p10-8~----10--8~--/13--13~---13--15--15--8~---|
G|-------------------------------------------------------------------------|
D|-------------------------------------------------------------------------|
A|-------------------------------------------------------------------------|

GTR.II
A|----------------------------------------------------|
E|----------------------------------------------------|
C|-------x3-----------------------x3------------------|
G|----------------------------------------------------|
D|-(11-11-11-11)-11-11------(10-10-10-10)-10-10-------|
A|-(9--9--9--9-)-9--9--9h11-(8--8--8--8-)-8--8--8h10--|
    PM---------------|       PM---------------|
                                                         x2
A|------------------------------------------------|
E|------------------------------------------------|
C|-------x3-----------------------x3--------------|
G|------------------------------------------------|
D|-(11-11-11-11)-11-11------(10-10-10-10)-8-6-6-6-|
A|-(9--9--9--9-)-9--9--9h11-(8--8--8--8-)-6-4-4-4-|
    PM---------------|       PM------------------|

Bridge 2
A|--------------|
E|--------------|
C|----------.---|
G|--9---2---3---|
D|--9---2---3---|
A|--7---0---1---|


========== Techno Interlude ===========


Bridge 3 
ALL PALM MUTES!
A|-----------------------------------------------------|
E|-----------------------------------------------------|
C|-----------------------------------------------------|
G|---------------------------------------.---------.---|
D|-13-13-12-12-8-8-5-5-10-10-10-10-10---10-----10-10---|
A|-11-11-10-10-6-6-3-3-8--8--8--8--8----8------8--8----|
   
A|------------------------------|
E|------------------------------|
C|------------------------------|
G|------------------.-----------|
D|10-10-10-10-10---10-----/-\---|
A|8--8--8--8--8----8------/-\---|


Riff 1B GTR.I Sequence:
Pt.A
Pt.B
Pt.A
Pt.B


Riff 1C x1


Riff 1D
A|-------------------------------------------------------|
E|-------------------------------------------------------|
C|-------------------------------------------------------|
G|----------------------.--.-----------------------.--.--|
D|-7----------7---------8--6--7-----------7--------8--4--|
A|----5-5--------5-5-------------5-5---------5-5---------|
      PM-|       PM-|            PM-|        PM-|
                                                               
A|--------------------------------------------------|
E|--------------------------------------------------|
C|-------------------------.--[9----\-]-------------|
G|----------------------.--6---7----\---3--6--5--3--|
D|-7----------7---------8-----{7----\-}-3--6--5--3--|
A|----5-5--------5-5----------{5----\-}-1--4--3--1--|
      PM-|       PM-|


Riff 5A
GTR.I
A|-----------------------------------------------------------|
E|-----------------------------------------------------------|
C|-----------------------------------------------------------|
G|-7~---7-7---8~---8-8--/10-8--7~---7-7---8~---8-8-8-8-5~----|
D|-----------------------------------------------------------|
A|----------5---------------------------5--------------------|
            PM                          PM

A|-----------------------------------------------------|
E|-----------------------------------------------------|
C|-----------------------------------X3----------------|
G|-7~---7-7---8~---8-8--/10-8--(11-11-11-11)-----------|
D|----------------------------------------------[.]----|
A|----------5--------------------------------6-6-6-{6}-|
            PM                               PM------|

GTR.II
A|---------------------------------------------------------|
E|---------------------------------------------------------|
C|---------------------------------------------------------|
G|-7----------8---------------7-----------8----------------|
D|-7----------8---------------7-----------8----------------|
A|-5----------6----------8-6--5-----------6----------6-3---|

A|-----------------------------------------------------------------------|
E|-----------------------------------------------------------------------|
C|-----------------------------------.----------.----------.-------------|
G|-7----------8---------------11-11-11---11-11-11---11-11-11------[.]----|
D|-7----------8---------------11-11-11---11-11-11---11-11-11---8-8-8-{8}-|
A|-5----------6----------8-6--9--9--9----9--9--9----9--9--9----6-6-6-{6}-|
                              PM---------------------------------------|

Play together twice, and omit everything in [these brackets] and play what 
is in {these brackets} on second time


Riff 5B
GTR.I
A|-----------------------------------------------------------|
E|-----------------------------------------------------------|
C|----------------------------------------------------{.}----|
G|-7~---------8~---8-8--/10-8--7~---------8~-----8---8-5[~]--|
D|-----------------------------------------------------------|
A|-----------------------------------------------------------|
                                      
A|-----------------------------------------------------|
E|-----------------------------------------------------|
C|-----------------------------------X3---------[.]----|
G|-7~---------8~---8-8--/10-8--(11-11-11-11)-8-8-8-{8}-|
D|-----------------------------------------------------|
A|-----------------------------------------------------|

GTR.II
A|-------------------------------------------------------------|
E|-------------------------------------------------------------|
C|--------------------------------------------------------{.}--|
G|-7----------8---------------7-----------8---------------{7}--|
D|-7----------8---------------7-----------8---------------{7}--|
A|-5----------6----------8-6--5-----------6----------[6-3]{5}--|

A|-----------------------------------------------------------------------|
E|-----------------------------------------------------------------------|
C|-----------------------------------.----------.----------.-------------|
G|-7----------8---------------11-11-11---11-11-11---11-11-11------[.]----|
D|-7----------8---------------11-11-11---11-11-11---11-11-11---8-8-8-{8}-|
A|-5----------6----------8-6--9--9--9----9--9--9----9--9--9----6-6-6-{6}-|
                              PM---------------------------------------|  

Play together twice, and omit everything in [these brackets] and play what 
is in {these brackets} on second time


========== Techno Interlude 2 ===========

Techno Interlude is complimented by random chords of:
A|-----|
E|-----|
C|--.--|
G|--7--| 
D|--7--|
A|--5--|

Slide out of interlude


Riff 6
A|--------------------------------|
E|--------------------------------|
C|-----.-------.-------.-------.--|
G|-7-7-7---7-7-7---7-7-7---7-7-5--|  x16      on last 8 times, GTR.II plays
D|-7-7-7---7-7-7---7-7-7---7-7-5--|  then     these chords at a different  
A|-5-5-5---5-5-5---5-5-5---5-5-3--|  slide    timing
   PM---|  PM---|  PM---|  PM---|    out


Riff 7A
A|------------------------|   |------------|
E|------------------------|   |------------|
C|-------------------.----|   |------------|
G|-------------------2----|x3 |--7-----\r--|
D|-7--------/7-------2----|   |--7-----\r--|
A|----0---------0----0----|   |--5-----\r--|

Play all together twice


Riff 7B (We are the salt in the eyes of Christ...)
Pt.A     
A|------|  |------|
E|------|  |------|  
C|--.---|  |------|     Guitars exchange playing these chords x12
G|--2---|  |--9---|
D|--2---|  |--7---|
A|--0---|  |------|  

Pt.B
A|------------|
E|------------|
C|------------|
G|--7-----\r--|
D|--7-----\r--|
A|--5-----\r--|

Pt.C
A|----------------------------|
E|----------------------------|
C|-.-----.-----.-----.---.--.-| 
G|-9--.--9--.--9--.--9---9--9-| x3   GTR.I plays the lower octave
D|-7--2--7--2--7--2--7---7--7-|      GTR.II plays the higher octave
A|----0-----0-----0-----------| 
                     PM------|

Pt.D
A|-------------------------|             Riff 7B Sequence:
E|-------------------------|             Pt.A
C|-.-----.-----.-----.-----|             Pt.B 
G|-9--.--9--.--9--.--9--.--|             Pt.C   
D|-7--2--7--2--7--2--7--2--|             Pt.B   
A|----0-----0-----0-----0--|             Pt.D


Riff 8 
GTR.I
A|------------------------------------------------|
E|------------------------------------------------|
C|-12--11--11~----\------/10~----9-------------9--|
G|-----------------------------------10----12-----|
D|------------------------------------------------|
A|------------------------------------------------|
                                                         x2 replace first
                   First Time     Second time               time with second
A|----------------|--------------|-----------------|        time on repeat
E|----------------|--------------|-----------------|
C|----12--12--9~--|--/12---16~---|-----------------|
G|-9--------------|--------------|--9~----9~----/--|
D|----------------|--------------|-----------------|
A|----------------|--------------|-----------------|

GTR.II (slight variation of Riff 2A GTR.I)
A|-----------------------------------------------------------------|
E|-----------------------------------------------------------------|
C|-----------------9-9-9-------------------.-------------.---------|
G|------9-9-9------------7-7-9-9-10-10-10-10---10-10-10-10---------|
D|-7----------7------------------8--8--8--8----8--8--8--8----12----|
A|-----------------------------------------------------------10----|
                                                                       x2
                                                                      then
A|----------------------------------------------|                     slide
E|----------------------------------------------|                     out
C|-----------------9-9-9--------------------.---|
G|------9-9-9------------7-7-9-9-----------10---|
D|-7----------7------------------8~--------8----|
A|----------------------------------------------|

Together:
(Another variation of Riff 2A)
Pt.A
A|-------------------------------------------------|
E|-------------------------------------------------|
C|-----------------8-8-8---------------------------|
G|------8-8-8------------6-6-8-8-9~----9-----6-----|
D|-6----------6------------------------7-----4-----|
A|-------------------------------------------------|

Pt.B
A|------------------------------------------------------|
E|------------------------------------------------------|
C|-----------------8-8-8-------------------.--------.---|
G|------8-8-8------------6-6-8-8-9-----9-9-9----5-5-5---|
D|-6----------6------------------7-----7-7-7----3-3-3---|
A|------------------------------------------------------|
                                       PM-|     PM---|
Pt.C
A|---------------------------------------------|
E|---------------------------------------------|
C|-----------------8-8-8--------------------.--|
G|------8-8-8------------6-6-8-8-9--9-9-9-9-9--|
D|-6----------6------------------7--7-7-7-7-7--|
A|---------------------------------------------|
                                    PM-----|


Bridge 1


Bridge 4
Guitars alternate
A|----------|
E|----------|
C|----------|
G|------.---|  x2
D|--2---2---|
A|--0---0---|


Bridge 1 GTR.II section  x8


Outro
A|----------------|
E|----------------|
C|-----------.----|
G|--9--9--9--9----|  END
D|--7--7--7--7----|
A|----------------|
    PM-----|
Tap to rate this tab
 
# A B C D E F G H I J K L M N O P Q R S T U V W X Y Z