Song name
# A B C D E F G H I J K L M N O P Q R S T U V W X Y Z

The Project Hate Mcmxcix - Symphony Of The Deceived tab

SONG: Symphony of the Deceived
ARTIST: The Projcet Hate MCMXCIX
ALBUM : Armageddon March Eternal - Symphonies of Slit Wrists

Tuning (High to Low): A-E-C-G-D-A (A STANDARD)

PM- Palm mute     * - Pinch Harmonic             ^ - strum upwards
\ - Slide down    > - let ring                   x - pick slide
/ - Slide up      h - hammer on                  r - rest  
~ - Vibrato       p - pull off
w - wide vibrato  b(1/4) - Bend (step)
. - Stoccato      br(1/4) - Bend release (step)   


Intro
GTR.I
Pt.A                             Pt.B
A|------------------------------|----------------------------|
E|------------------------------|----------------------*-----|
C|-.---{*}----------------------|----------------------9-----|
G|-9----9h10--7h8p7-------------|-------9--10-------------7--|
D|-------------------10-8-7-\---|---/7-----------------------|
A|------------------------------|--------------7-7-7---------| 
                                              PM-|      

Pt.C                        Pt.D         Intro GTR.I Sequence:
A|-------------------------| -------|    Pt.A---|
E|-------------------------|--------|    Pt.B   |--x4 replace Pt.C with
C|--------*----------*-----|-*------|    Pt.A   |     Pt.D on last repeat
G|---/10--9\7--------9/10--|-9w-----|    Pt.C---|
D|-------------------------|--------|    NOTE: {These brackets} in Pt.A
A|-------------7--7--------|--------|          are only played on Pt.A's 
                                               4th, 5th, 7th and 8th repeat 

GTR.II
A|----------------------------------------------------------|
E|----------------------------------------------------------|
C|---------------x3-----------------------------------------|
G|-(----.------.------.------.)--------5--4--2--------4--5--| x4
D|-(2-2-2--2-2-2--2-2-2--2-2-2)--2-2-2-3--2--0--------2--3--|
A|-(0-0-0--0-0-0--0-0-0--0-0-0)--0-0-0----------0--0--------|
    PM------------------------|  PM---|         PM--|

GTR.III
A|----------------------------------------------------------|
E|----------------------------------------------------------|
C|--------------x3------------------------------------------|
G|-(----.------.------.------.)------.------.------.--4--5--| x4
D|-(2-2-2--2-2-2--2-2-2--2-2-2)--2-2-2--2-2-2--2-2-2--2--3--|
A|-(0-0-0--0-0-0--0-0-0--0-0-0)--0-0-0--0-0-0--0-0-0--------|
    PM------------------------|  PM-----------------|


Riff 1 (I grant you my demons...)
A|----------------------------------------------------------|
E|----------------------------------------------------------|
C|----------------------------------------------------------|
G|----------------------------------------------------------|
D|-14------14--15--10----------------14--15--10---------2---|
A|-12--0-0-12--13--9---0-0-0-0-0-0-0-12--13--9--0---0-0-0---|
       PM-|            PM-----------|           PM-----|             x4
                                                                     
A|---------------------------------------------------------------|
E|---------------------------------------------------------------|
C|---------------------------------------------------------------|
G|---------------------------------------------------------------|
D|-14------14--15--10----------------12--14------14--15------12--|
A|-12--0-0-12--13--9---0-0-0-0-0-0-0-10--12--0-0-12--13--0-0-10--|
       PM-|            PM-----------|        PM-|        PM-|


Riff 2
GTR.I
A|-----------------------------------------------------|
E|-----------------------------------------------------|
C|-----------------------------------------------------|
G|-----------3------------------3----------------------|
D|-----------------------------------------------1-----|
A|-1--1-1-1-----1--1-1--1-1--1-----1--1-1--1--2-----2--|


A|--------------------------------------------------|
E|--------------------------------------------------|
C|--------------------------------------------------|
G|-----------3--------------------------------------|
D|-----------------------------1--------------1-----|
A|-1--1-1-1-----1/2--2--2-2-2-----2--2--1--2-----2--|

GTR.II
A|----------------------------------------------------|
E|----------------------------------------------------|
C|----------------------------------------------------|
G|-3>-------------------------------------------------|
D|-3>-------------------------------------------------|
A|-1>-------------------------------------------------|
                                                            x2 Play {these
A|----------------------------------------------------|        brackets}   
E|----------------------------------------------------|        only on first
C|----------------------------------------------------|        time
G|-{r}------------------------------------------3-----|
D|-{r}------------------------------------3--4--1--4--|
A|-{r}------------------------------------1--2-----2--|

Then play GTR.I's part together x4


Riff 3 (Kneel down before me...)
GTR.I
A|---------------------------------------|
E|---------------------------------------|
C|---------------------------------------|
G|-----.------.------.----------------.--|  x4
D|-2-2-2--2-2-2--2-2-2----2--3--2--3--2--|
A|-0-0-0--0-0-0--0-0-0----0--1--0--1--0--|
   PM-----------------|   PM-----------|

GTR.II plays Riff 1 x2

Guitars switch parts and play the same amount of repitions, but the part that
is originally GTR.I's (now GTR.II) has it's last repition replaced with:

A|--------------------------------------------------------|
E|--------------------------------------------------------|
C|--------------------------------------------------------|
G|-----.------.------.------.------.------.------.------.-|
D|-2-2-2--2-2-2--2-2-2--2-2-2--2-2-2--2-2-2--2-2-2--2-2-2-|
A|-0-0-0--0-0-0--0-0-0--0-0-0--0-0-0--0-0-0--0-0-0--0-0-0-|
   PM---| PM---| PM---| PM---| PM---| PM---| PM---| PM---|

Bridge
GTR.I
A|---------------------------------------------|
E|---------------------------------------------|
C|---------------------------------------------|
G|-5--5~---------------------------------------|
D|----------7--7~------------------------------|
A|-------------------9~----------6~----------r-|

GTR.II
A|---------------------------------------------|
E|---------------------------------------------|
C|---------------------------------------------|
G|-------------------5-----8-----11------------|
D|----------7-----------4-----7------10~-----r-|
A|-3--0--------6~------------------------------|


========== Industrial Interlude =========== 


Riff 4A (We rise, from the deepest of depths...)
Pt.A                                Pt.B             Pt.C
A|---------------------------------|----------------|----------------|
E|---------------------------------|----------------|----------------|
C|---------------------------------|----------------|----------------|
G|---------------------------------|----------------|----*-----------|
D|-7-----------8b(1/4)--8--11------|----8b(1/4)--8--|----8w-------8--|
A|-5--------6-----------6--9-------|-6-----------6--|-6-----------6--|

Riff 4A Sequence:
Pt.A
Pt.B
Pt.A
Pt.C
Pt.A
Pt.B
Pt.A
Pt.B

Bridge 2
A|-----------------|
E|-----------------|
C|-----------------|
G|-2>------------r-|
D|-2>------------r-|
A|-0>------------r-|


========== Industrial Interlude ===========


Riff 4B (I walk among you...)
A|---------------------------------------------------|
E|---------------------------------------------------|
C|---------------------------------------------------|
G|-7--6~-----------6w---------------------10W--------|  x4
D|--------------8------------6~--------8-------------|
A|---------------------------------------------------|


Riff 5A 
Pt.A
A|--------------------------------------------------|
E|--------------------------------------------------|
C|---------------------------------------------.----|
G|------x6------------x2-----------x7----------8----|
D|-(10-10-10-10)-(11-11-11-11)-(6-6-6-6)-6-6-6-6----|
A|--------------------------------------------------|

Pt.B
GTR.I
A|--------------------------------------------------|   Riff 5A Sequence:
E|--------------------------------------------------|   Pt.A
C|--------------------------------------------------|   Pt.B
G|------x6------------x2-----------x6----*----------|
D|-(10-10-10-10)-(11-11-11-11)-(6-6-6-6)-6w---------|
A|--------------------------------------------------|

GTR.II
A|---------------------------------------|
E|---------------------------------------|
C|---------------------------------------|
G|------x6------------x2-----------x8----|
D|-(10-10-10-10)-(11-11-11-11)-(6-6-6-6)-|
A|---------------------------------------|

Riff 5B                                    
Pt.A
A|----------------------------------------------|
E|---------------------------------------x2-----|
C|-----x2----------------------x2----(9-9-9-9)--|
G|-(9-9-9-9)-------x2------(9-9-9-9)------------|
D|-----------(10-10-10-10)----------------------|
A|----------------------------------------------| 

Pt.B                                                        Riff 5B Sequence:
A|---------------------------------------------------------|Pt.A
E|---------------------------------------------------------|Pt.B
C|---------------------------------------------------------|Pt.A
G|-(10-10-10-10)-------x2--------------------------x2------|Pt.C 
D|---------------(10-10-10-10)--------x2-----(10-10-10-10)-|{these brackets}
A|-----------------------------(11-11-11-11)---------------|are GTR.II only 
                                                            [these brackets]
Pt.C                                                        are GTR.I only
A|-------------------------------------------------------|
E|-------x2----------x2----------------------------------|
C|-(12-12-12-12)-(9-9-9-9)---.---.-----.---.-----.---.---|
G|-------------------------[13--13----13--13----13--13]--|
D|-------------------------{13--13----13--13----13--13}--|
A|-------------------------{11--11----11--11----11--11}--|


Riff 6
Pt.A                Pt.B
A|-----------------|----------------------------------------------------|
E|-----------------|----------------------------------------------------|
C|-----------------|----------------------------------------------------|
G|-8--7>-----------|-----.--------.--------.------.--------.----{----.}-|
D|-8--7>-----------|-2-2-2----2-2-2----2-2-2--2-2-2----2-2-2----{2-2-2}-|
A|-6--5>-----------|-0-0-0----0-0-0----0-0-0--0-0-0----0-0-0----{0-0-0}-|
                     PM---|   PM---|   PM---| PM---|   PM---|    PM---|  

Riff 6 Sequence:
Pt.A
Pt.B
Pt.A
Pt.B
Pt.B
Pt.A
Pt.B omit {these brackets}
 

Riff 6 Lead
Pt.A                                        Pt.B
A|-----------------------------------------|------------------|
E|-----------------------------------------|------------------|
C|-----------------------9-----------------|------------------|
G|-8--7~---7-7-7-7----------9--7--{6~}-----|--\-3~------------|
D|-------------------10--------------------|------------------|
A|-----------------------------------------|------------------|

Pt.C
A|----------------------------------------------------------|
E|----------------------------------------------------------|
C|----------------------------------------------------------|
G|--6----7--/9-----10p9--7~------7-----9----7---------------|
D|----------------------------------7------------7--5~------|
A|----------------------------------------------------------|

Pt.D
A|-17----16h17p17-------------------------------------|
E|----------------18~---17h18p17----------------------|
C|-------------------------------19-18-16-18-19-18-16-|
G|----------------------------------------------------|
D|----------------------------------------------------|
A|----------------------------------------------------|

A|-----------------------------|   Riff 6 Lead Sequence:
E|-----------------------------|   Pt.A
C|-----------------------------|   Pt.B
G|-19-17-16-17-19-17-16-17\----|   Pt.A
D|-----------------------------|   Pt.C
A|-----------------------------|   Pt.A omit {these brackets}
                                   Pt.D

Riff 7
Pt.A                          Pt.B
A|---------------------------|--------------------------------|
E|---------------------------|--------------------------------|
C|---------------------------|--------------------------------|
G|---------------------------|--------------------1--1--1/5-1-|
D|-14------14-----13--13-----|-14------14-----13--1--1--1/5-1-|
A|-12--0-0-12--0--12--12--0-0|-12--0-0-12--0--12--0--0--0>--0-|
       PM-|    PM         PM       PM-|    PM

Pt.C
A|--------------------------------------|     Riff 7 Sequence:
E|--------------------------------------|     Pt.A--|
C|--------------------------------------|     Pt.B  | x2
G|-------------9h10p9--------9--10------|     Pt.A  |
D|-14--14-------------11-12---------11--|     Pt.C--|
A|-12--12--0-0--------------------------|     Pt.A-|
           PM-|                               Pt.D-|  x3
                                              Pt.A
                                              Pt.E

Pt.D                                     Pt.E
A|-------------------------------------|-----------------------------------|
E|-------------------------------------|-----------------------------------|
C|-------------------------------------|-----------------------------------|
G|-------------------------------------|-------------9h10p9--------9-------|
D|-----.------------.------------------|-14--14-------------11-12-----\----|
A|-0-0-0----0-0-0-0-0----0-0-0--0--0-0-|-12--12--0-0------------------\----|
   PM---|   PM-------|   PM-----------|          PM-|       


Riff 2 GTR.I's part x4

Riff 8
PT.A 
GTR.I
A|-------------------------------------------------------------------------|
E|-------------------------------------------------------------------------|
C|-------------------------------------------------------------------------|
G|-------------------------------------------------------------3=====0=====|
D|-4====1==4====1===4==5====2==5====2===5==4====1==4====1===4==------------|
A|-------------------------------------------------------------------------|

GTR.II
A|-------------------------------------------------------------------------|
E|-------------------------------------------------------------------------|
C|-------------------------------------------------------------------------|
G|-------------------------------------------------------------3=====0=====|
D|-11>-----------------\r--------------------------------------------------|
A|-9->-----------------\r--------------------------------------------------|

Pt.B
TOGETHER (I exterminate...)
A|-------------------------------------------------------------------------|
E|-------------------------------------------------------------------------|
C|-------------------------------------------------------------------------|
G|-------------------------------------------------------------------------|
D|-------------------------------------------------------------3=====------|
A|-4====1==4====1===4==5====2==5====2===5==4====1==4====1===4==------5=====|

Riff 8 Sequence:
Pt.A
Pt.B x2
Pt.A x2


Intro Sequence:
GTR.I:
Pt.A--|
Pt.B  | x2 Pt.C is replaced with
Pt.A  |    Pt.D on final repeat
Pt.C--|
Played over:
GTR.II
GTR.III
then GTR.II together


Bridge 3
Pt.A
A|---------------------------------------------|
E|---------------------------------------------| Guitars alternate,
C|------x3-------------------------------------| omit {these brackets}
G|-(.--.--.--.)--.-----------------------------| for the first guitar (the
D|-(9--9--9--9)--9--10--10--10--7--6--6--6--2--| one that starts earlier) 
A|-(7--7--7--7)--7--8---8---8---5--4--4--4--0--| 
                   {PM-----------------------|}

Pt.B
Lead
A|--------------------------------------------------------------------------|
E|------------------------------------------------------12----------------12|
C|----------------*----9~----------------------11-12-14----14-12-11-12-14---|
G|--9------9--10--9w-----------9-10-13-10-9-10------------------------------|
D|-----0-0------------------------------------------------------------------|
A|--------------------------------------------------------------------------|
       PM-|

A|-----------------------------------------------------|
E|-17----------17-15-14--------------------------------|
C|----14-15-17----------15-17-14----------15b(1/2)\----|
G|-------------------------------17-16-17--------------|
D|-----------------------------------------------------|
A|-----------------------------------------------------|

Rhythm
A|---------|                   |----------------------------|
E|---------| 
                        
                    
Tap to rate this tab
 
# A B C D E F G H I J K L M N O P Q R S T U V W X Y Z