Song name
# A B C D E F G H I J K L M N O P Q R S T U V W X Y Z

The Project Hate Mcmxcix - I Smell Like Jesus Dead tab

SONG: I Smell Like Jesus... Dead!
ARTIST: The Projcet Hate MCMXCIX
ALBUM : When We Are Done Your Flesh Will Be Ours

Tuning (High to Low): A-E-C-G-D-A (A STANDARD)

PM- Palm mute     * - Pinch Harmonic             ^ - strum upwards
\ - Slide down    > - let ring                   x - pick slide
/ - Slide up      h - hammer on                  r - rest  
~ - Vibrato       p - pull off
w - wide vibrato  b(1/4) - Bend (step)
. - Stoccato      br(1/4) - Bend release (step)  


Riff 1A (mmmmmmmm... GO!!)
GTR.I
Pt.A                     Pt.B                  
A|-------------------|  |-------------------------| 
E|-------------------|  |-------------------------|  
C|-------------------|  |-------------------------|
G|---.--------.------|  |-----.-----------.-------| 
D|-2-2----2-2-2----2-|  |-12-12----12-12-12----12-|  
A|-0-0----0-0-0----0-|  |-10-10----10-10-10----10-|  

Riff 1 GTR.I Sequence:
Pt.A x3
Pt.B         
(All together 4 times)

GTR.II
Pt.A                                   Pt.B
A|---------------------------------|  |---------------------------------|
E|---------------------------------|  |---------------------------------|
C|---------------------------------|  |---------------------------------|
G|---------------------------------|  |---------------------------------|
D|-7-7-7-7-------------------------|  |-5-5-5-5-5-5-7-7-7-7-8-8-8-8-4-4-|
A|---------5-5-4-4-4-4-5-5-4-4-5-5-|  |---------------------------------|

Riff 1 GTR.II Sequence:
Pt.A
Pt.B
Pt.B (GTR.I)
(All together 4 times)


Riff 2 (I... I am the Anti-Christ...)
Pt.A                                        Pt.B       Pt.C
A|----------------------------+------------|----------|----------------|
E|----------------------------+------------|----------|----------------|
C|----------------------------+------------|----------|----------------|
G|-[.]------------------------+------------|----------|----------------|
D|-[3]--2----2--3--2--3--6--6-+-6--6--7--7-|-6--6--3--|----------------|
A|-[1]--0----0--1--0--1--4--4-+-4--4--5--5-|-4--4--1--|-5-7-8-7-5-1----|
   [PM]      PM--------|        PM---------| PM------|  PM-------|

Pt.D         Riff 2 Sequence:
A|------|    Pt.A--|                  Pt.A
E|------|    Pt.B  | x3 followed by:  Pt.B
C|------|    Pt.A  |                  Pt.A (end at + and hold a 3 beat rest)
G|------|    Pt.C--|                  Pt.D 
D|-/-\--|    
A|-/-\--|


Riff 1A x4


Riff 3
GTR.I
A|--------------------------------------------------------|
E|--------------------------------------------------------|
C|--------------------------------------------------------|
G|--------7w----------7h8p7-6~----------7w----------------| x10
D|-----------------------------------------------8--------|
A|-5--5-5------5--5-5------------5--5-5------5-5----5-5-9-|
   PM----|     PM----|           PM----|     PM-|   PM-|

GTR.II
Pt.A
A|---------------------------------------------------------|
E|---------------------------------------------------------|
C|---------------------------------------------------------|
G|-.-------------------------------------------------------|
D|-7---------------------------------------------8------11-|
A|-5-----------------------------------------5-5-6--5-5-9--|
                                             PM-|   PM-|

Pt.B
A|---------------------------------------------------------| Riff 3 GTR.II 
E|---------------------------------------------------------| Sequence:
C|---------------------------------------------------------| Pt.A
G|--------.------------------------------------------------| Pt.B
D|-7>-----7--------------------------------------8------11-| Pt.C x8
A|-5>-----5----------------------------------5-5-6--5-5-9--|
                                             PM-|   PM-|

Pt.C
A|-----------------------------------------------------------|
E|-----------------------------------------------------------|
C|-----------------------------------------------------------|
G|--------7w----------7h8p7-6~----------7w-------------------| 
D|-----------------------------------------------8------8-11-| 
A|-5--5-5------5--5-5------------5--5-5------5-5----5-6------|
   PM----|     PM----|           PM----|     PM-|   PM---|


Bridge
A|---------------------------|
E|---------------------------|
C|---------------------------|
G|-7--6-----7-----7----------|
D|-------8-----7-----5--8--r-|
A|---------------------------|


========== Piano Interlude ===========


Riff 2 Sequence:
Pt.A--|                  Pt.A
Pt.B  | x3 followed by:  Pt.B
Pt.A  |                  Pt.A (end at + and rest)
Pt.C--|                   


========== Piano Interlude ===========


Riff 4A (Burn me, Father...)
A|-----------------------------------------------------------------------|
E|-----------------------------------------------------------------------|
C|-----------------------------------------------------------------------|
G|------------------------------------------------------------------*----| x4
D|-3--------3--3-----3--------3----6--6--------6-----6--11----11----11w--|
A|-1--1--1--1--1--1--1--1--1--1----4--4--4--4--4--4--4--9--9--9--9-------|
      PM--|       PM    PM--|            PM--|    PM       PM    PM


Riff 4B (Burn me, Father...)
A|-----------------------------------------------------------------------|
E|-----------------------------------------------------------------------|
C|-----------------------------------------------------------------------|
G|-----------------------------------------------------------------------| 
D|-2--------2--2-----2--------2----5--5--------5-----5--4-----4-----5--4-|
A|-0--0--0--0--0--0--0--0--0--0----3--3--3--3--3--3--3--2--2--2--2--3--2-|
      PM--|       PM    PM--|            PM--|    PM       PM    PM        
                                                                           x2
A|--------------------------------+---------------------------------------|
E|--------------------------------+---------------------------------------|
C|--------------------------------+---------------------------------------|
G|--------------------------------+----------------------------------*----| 
D|-2--------2--2-----2--------2---+-5--5--------5-----5--4-----4-----4w---|
A|-0--0--0--0--0--0--0--0--0--0---+-3--3--3--3--3--3--3--2--2--2--2-------|
      PM--|       PM    PM--|            PM--|    PM       PM    PM


Riff 3 x8


Riff 1A GTR.I Sequence:
Pt.A x3


Riff 1B
Pt.A
A|---------------------------------------------------|   Riff 1B Sequence:
E|---------------------------------------------------|   Pt.A
C|---------------------------------------------------|   Pt.B
G|----------------------------------------[*-]-------|   Pt.A switch what is
D|----------------------------------------[12]-------|   in {these brackets}
A|-10----10-10-10----10-10-10----10-10-10----{10-10}-|   for what is in
   PM-----------------------------------------------|    [these brackets]

Pt.B
A|-------------------------------------------------------------------|
E|-------------------------------------------------------------------|
C|-------------------------------------------------------------------|
G|-.-------------.-------.-----------------------------------.-------|
D|-2----2--2--2--2----2--2----2--2------------------------2--2----2--|
A|-0----0--0--0--0----0--0----0--0--0---0---0---0---0--0--0--0----0--|
                                    PM------------------|


Riff 1A x4 (both guitars playing GTR.I together)


Bridge 2
Pt.A                     Pt.B        Bridge 2 Sequence:
A|----------------------|--------|   Pt.A x2
E|----------------------|--------|   Pt.B
C|----------------------|--------|
G|----------------------|--------|
D|-10--10--10---\r------|--/--\--|
A|-8---8---8----\r------|--/--\--|
  

Riff 5 
A|------------------------------------------------------------|
E|------------------------------------------------------------|
C|------------------------------------------------------------|
G|---------------------------.--------------------------------|
D|-10---10--10--10--10--10--10----10--10--10--10--10--10--10--|
A|-8----8---8---8---8---8---8-----8---8---8---8---8---8---8---|
        PM----------------|       PM--------------------|
                                                                   x4
A|------------------------------------------------------------|
E|------------------------------------------------------------|
C|------------------------------------------------------------|
G|---------------------------.--------------------------------|
D|-13---13--13--13--13--13--13----13--13--13--13--13--13--13--|
A|-11---11--11--11--11--11--11----11--11--11--11--11--11--11--|
        PM----------------|       PM--------------------|


Riff 6 (Take those souls so burnt...)
A|-------------------------------------------------------------------|
E|-------------------------------------------------------------------|
C|-------------------------------------------------------------------|
G|------------------------------------------------------------*------| x4
D|-14>------------14>--------/14w----10>----------10>---------10w----|
A|-12>--------12--12>---------0------8->-------8--8->----------------|
              PM                               PM

Riff 4A x4
Riff 4B x2 (end at +)


Riff 4C
A|--------------------------------------------------------|
E|--------------------------------------------------------|
C|--------------------------------------------------------|
G|--------------------------------------------------------| END
D|-10----10----10--12--9----9----9--7>---~~~ring~out~~~~--|
A|-8-----8-----8---10--7----7----7--5>---~~~ring~out~~~~--|
Tap to rate this tab
 
# A B C D E F G H I J K L M N O P Q R S T U V W X Y Z