Song name
# A B C D E F G H I J K L M N O P Q R S T U V W X Y Z

The Project Hate Mcmxcix - Angels Mislead tab

SONG: Angels Mislead
ARTIST: Deadmarch - The Project Hate MCMXCIX
ALBUM : Initiation of Blasphemy

Tuning (High to Low): B-F#-D-A-E-B (B STANDARD)

PM- Palm mute     * - Pinch Harmonic             ^ - strum upwards
\ - Slide down    > - let ring                   x - pick slide
/ - Slide up      h - hammer on                  r - rest  
~ - Vibrato       p - pull off
w - wide vibrato  b(1/4) - Bend (step)
. - Stoccato      br(1/4) - Bend release (step)  


Riff 1A
GTR.I
B |---------------------------------------------|
F#|---------------------------------------------|
D |---------------------------------------------|
A |-----------9--10--6~---6--6--7--7--6--6h7h9--|
E |-2---7--7------------------------------------|
B |-0-------------------------------------------|
                                                                  x4
B |-------------------------------------------------------|
F#|-------------------------------------------------------|
D |------------------------------------------------*------|
A |-10~------9--10--9h10p9-7--6~---7--6--7--9--10--7w-----|
E |-------------------------------------------------------|
B |-------------------------------------------------------|

GTR.II
B |-----------------------------------------------|
F#|-----------------------------------------------|
D |-----------------------------------------------|
A |-----------------------------------------------|
E |-2>----------------2>--------------------------|
B |-0>----------------0>--------------------------|
                                                                      x4
B |----------------------------------------------------------|
F#|----------------------------------------------------------|
D |----------------------------------------------------------|
A |----------------------------------------------------------|
E |-10>-------------------------2--------.---------.---------|
B |-8->-------------------------0----0---0-----0---0------0--|
                                     PM--------------------|


Riff 2A (I guide the angels...)
B |--------------------------------------------------------|
F#|--------------------------------------------------------|
D |--------------------------------------------------------|
A |-7------7~---/10~---9~---9--10--9--7~----9--7--9--7~-\--| x2
E |-7---7--------------------------------------------------|
B |-5------------------------------------------------------|


Riff 1B (I rise above...)
GTR.I
B |---------------------------------------------|
F#|---------------------------------------------|
D |---------------------------------------------|
A |-----------9--10--6~---6--6--7--7--6--6h7h9--|
E |-2---7--7------------------------------------|
B |-0-------------------------------------------|
                                                                  x4
B |-------------------------------------------------------|
F#|-------------------------------------------------------|
D |-------------------------------------------------------|
A |-10~------9--10--9h10p9-7--6~---7--6--7--9--10--7~-----|
E |-------------------------------------------------------|
B |-------------------------------------------------------|

GTR.II
B |-----------------------------------------------|
F#|-----------------------------------------------|
D |-------------------9---9-9-5--5--4--4-5-7-5----|
A |-----------9--10-------------------------------|
E |-2---7--7--------------------------------------|
B |-0---------------------------------------------|
                                                                    x4
B |-----------------------------------------------------------|
F#|-----------------------------------------------------------|
D |-5--------5----5----4----5----4----5--4--5--4h5p4h5p4\-----|
A |-----------------------------------------------------------|
E |-----------------------------------------------------------|
B |-----------------------------------------------------------|


Riff 2B
B |------------------------------------------------------|
F#|------------------------------------------------------|
D |------------------------------------------------------|
A |-2------2~---/5~---4~---4--5--4--2~----4--2--4--2~-\--| x2
E |-2---2------------------------------------------------|
B |-0----------------------------------------------------|


Riff 2A x2


Riff 3A
GTR.I
B |--------------------------------|
F#|--------------------------------|
D |--------------------------------|
A |----------------------{*}-------|
E |----------------------{3}-------|
B |-0--0--/4--3-3-3-3-0-0[3-3-3-3]-|
                                         x4 on fourth repeat substitute
GTR.II                                      what is in [these brakets]
B |--------------------------------|        for what is in {these brackets}
F#|--------------------------------|
D |--------------------------------|
A |----.---------------------------|
E |-2--2-------------{/---\------}-|
B |-0--0-------------{/---\------}-|

Riff 3B
Pt.A
B |-------------------------------|      Riff 3B Sequence:
F#|-------------------------------|      Pt.A x4
D |-------------------------------|      Pt.B
A |-------------------------------|      Pt.A x6
E |-------------------------------|      Pt.C
B |-0--0--/4--3-3-3-3-0-0-3-3-3-3-|

Pt.B
B |-------------------------------|
F#|-------------------------------|
D |-------------------------------|
A |-------------------------------|
E |-------------------------------|
B |-3-1-0-0-3-1-0-0---0-0-3-3-3-3-|
    PM-----------|

Pt.C
B |----------------------|
F#|----------------------|
D |----------------------|
A |-3------3--6-------6--|
E |-3------3--6-------6--|
B |-1---1--1--4----4--4--|
        PM         PM


Riff 2A x4


Riff 4A
GTR.I
Pt.A
B |---------------------------------------|
F#|---------------------------------------|
D |-*-------------------------------------|
A |-8w-----*------*------*------*---------|
E |--------8w-----8w-----8w-----8w--------|
B |-----6------6------6------6------6--6--|
        PM     PM     PM     PM     PM--|

Pt.B
B |-----------------------------------|     Riff 4 GTR.I Sequence:
F#|-----------------------------------|     Pt.A
D |-----------------------------------|     Pt.B
A |-*-----*-----*-----*-----*---------|     Pt.C--|
E |-7w----7w----8w----8w----8w--------|     Pt.B--| x3
B |----5-----5-----5-----5------6--6--|
       PM    PM    PM    PM     PM--|

Pt.C
B |----------------------------------|
F#|----------------------------------|
D |----------------------------------|
A |-*-----*-----*-----*-----*--------|
E |-8w----8w----8w----8w----8w-------|
B |----6-----6-----6-----6-----6--6--|
       PM    PM    PM    PM    PM--|

GTR.II
B |----------------------------------------------------------------------|
F#|----------------------------------------------------------------------|
D |----------------------------------------------------------------------|
A |-8>-----------------------------------7>-----------4>-----------------|x4
E |-8>-----------------------------------7>-----------4>-----------------|
B |-6>-----------------------------------5>-----------2>-----------------|


Riff 4B
B |----------------------------------------------------------------------|
F#|----------------------------------------------------------------------|
D |{9~----9~----7~----7~----7~-----7p5-4~----4--/7--5~---5~---5~--4h5h7~}|
A |[10~---10~---9~----9~----9~-----9p7-6~----6--/9--7~---7~---7~--6h7h9~]|
E |----------------------------------------------------------------------|
B |(----6-----6-----6-----6-----6----------5-----------5----5-----------)|
        PM    PM    PM    PM    PM         PM          PM   PM

Riff 4B is played four times in total. The first two times has both guitars 
playing what is in [these brackets] and (these brackets), but on the last two
times GTR.II replaces [these brackets] for {these brackets}, yet continues
to play the same notes as GTR.I in (these brackets)... Get all that?


Piano Piece:
B |-------------------------------------------------------------|
F#|-------------------------------------------------------------|
D |-------------------------------------------------------------|
A |-8~---6-8-10-8~---------8-10-11~----10-11-13-8~--------------|
E |-------------------------------------------------------------|
B |-------------------------------------------------------------|

Guitar stops when vocals come in: "So I cry..."


Bridge
B |-----------------------------------------------|
F#|-----------------------------------------------| Slide in and
D |----.-------.----.-------.-------.-------------| x8
A |-3--3----3--3----3----3--3----3--3----3--------|
E |-3--3----3--3----3----3--3----3--3----3--------|
B |-1--1----1--1----1----1--1----1--1----1--1--1--|
       ^       ^            ^       ^       PM--|


Bridge 2
B |------------------|
F#|------------------|
D |------------------|
A |-2----------------|
E |----3--2-----3----|
B |----------3--1----|


Riff 1B x4 
but on last two repeats GTR.II plays:
B |---------------------------------|
F#|---------------------------------|
D |---------------------------------| x4 (ALL NOTES PALM MUTED!)
A |---------------------------------|
E |---------------------------------|
B |-0-0-0-0-0-0-0-0-0-0-0-0-0-0-0-0-|


Riff 3C
B |--------------------------------|
F#|--------------------------------|
D |--------------------------------|  
A |----------------------{*}-------| x4 Replace what is in [these brackets]
E |----------------------{3}-------|    for what is in {these brackets}
B |-0--0--/4--3-3-3-3-0-0[3-3-3-3]-|    every first time. Play the 4 repeats
                                        4 times for a total of 16 times, then
                                        once more (with pinch)
Riff 3D
B |------------------------------|
F#|------------------------------|
D |------------------------------|
A |-------------------------.----| END
E |-----------------------5-2----|
B |-0--0--/4--3-3-3-3-0-0-3-0----|

Tap to rate this tab
 
# A B C D E F G H I J K L M N O P Q R S T U V W X Y Z