Song name
# A B C D E F G H I J K L M N O P Q R S T U V W X Y Z

The Prom Kings - Bleeding tab

----------------------------------------------------------------------------
		The Bleeding Solo - Five Finger Death Punch
----------------------------------------------------------------------------
Tabbed by:Ryanshopefan1
Email:Guitplayer14@hotmail.com

I Couldn't Find A Tab That I Liked For This Solo So I Tabbed It myself.
Enjoy!  =)

Tuning:Drop C

D|-15b17~~~-15b17r15-13-12-------------------------------------------------|
A|-------------------------/13~~~--/13-13-15-10~~~--/10-10-10--8-8-8~~~----|
F|-------------------------------------------------------------------------|
C|-------------------------------------------------------------------------|
G|-------------------------------------------------------------------------|
C|-------------------------------------------------------------------------|

D|-------------13-15b17~~~--15b17r15-13-12-/20~~~--------------------------|
A|----------15-------------------------------------------------------------|
F|-------14----------------------------------------------------------------|
C|-12-15-------------------------------------------------------------------|
G|-------------------------------------------------------------------------|
C|-------------------------------------------------------------------------|
                    T
D|------------17h20h22p20---------------20b22-20b22-(20)-(20)~~~-----------|
A|----------18-----------18------------------------------------------------|
F|--------19---------------19----------------------------------------------|
C|------19-------------------19--------------------------------------------|
G|-17h20-----------------------20p17---------------------------------------|
C|-------------------------------------------------------------------------|

D|-20b22-(20)-20-20~~~~~~~~------------------------------------------------|
A|-------------------------------------------------------------------------|
F|-------------------------------------------------------------------------|
C|-------------------------------------------------------------------------|
G|-------------------------------------------------------------------------|
C|-------------------------------------------------------------------------|

I'm Not Completely Sure About The Sweeping Part But Other Than That, It Should Be Almost 100%

| /  Slide Up
| \  Slide Down
| h  Hammer-On
| p  Pull-Off
| ~  Vibrato
| *  Harmonic
| x  Mute Note
| T  Tapping
| b  Bend
|()  Pre Bend (Note Is Already Bent When You Hit It)
============================================================================
Tap to rate this tab
 
# A B C D E F G H I J K L M N O P Q R S T U V W X Y Z