Song name
# A B C D E F G H I J K L M N O P Q R S T U V W X Y Z

The Prophecy - Wicked Lover tab

Help us improve GuitareTab! Take a short survey!
Song: Wicked Lover (intro)
Band: Prophecy
Album: I fu***** don't know lol

Prophecy is a new band, makes music like Disturbed or Godsmack.
This song is a very good song, but with the distortion it's hard to 
understand and that why this tab is so-so.

Tuning: (same as the album!)

Intro (Heavy Distorted)
||-------------------|--------||
||-------------------|-10~~~--||
||-------------------|--------||
||----9-9--7-7-------|--------||
||----7-7--5-5--7-7--|--------||
||--00----------5-5--|--------||
                     
||------------------||
||------------------||
||------------------||
||------------------||
||-----6-6--0-4-00--||
||--00-3-3--0-2-00--||
Related for Wicked Lover tab