The Protomen - The Fall tab

THE FALL
by The Protomen
tabbed by Kigai

Lead Guitar


/ = Slide Up
\ = Slide down
h = Hammer On
p = Pull Off
b = Bend



  Intro +  Verse (x4)
e|--------------------------------------------------------------17\\\\\/////9--|
b|-12b-----2---2-4-6-6--4h6p4--2/7--5h7p5--7p5h7--7-9-11---12-14---------------|
g|-----------------------------------------------------------------------------|
d|-----------------------------------------------------------------------------|
a|-----------------------------------------------------------------------------|
E|-----------------------------------------------------------------------------|



e|--------------------------------------------------------------17\\\\\/////6--|
b|---------2---2-4-6-6--4h6p4--2/7--5h7p5--7p5h7--7-9-11---12-14---------------|
g|-----------------------------------------------------------------------------|
d|-----------------------------------------------------------------------------|
a|-----------------------------------------------------------------------------|
E|-----------------------------------------------------------------------------|


e|--6-8-9-9--4-11-9---9-11-13-13---11h13p11--9p7h9---9p7h9-9\\\\\\-------------|
b|-----------------------------------------------------------------------------|
g|-----------------------------------------------------------------------------|
d|-----------------------------------------------------------------------------|
a|-----------------------------------------------------------------------------|
E|-----------------------------------------------------------------------------|
Tap to rate this tab
 
# A B C D E F G H I J K L M N O P Q R S T U V W X Y Z