Song name
# A B C D E F G H I J K L M N O P Q R S T U V W X Y Z

The Protomen - Intermission tab

This is only the Lead guitar.

-------------------------------------------------------------| x2
o------------------------------------------------------------|o
---11-13-13/15--13-11----------------------------------------|
----------------------13-----------15----13-11-16-15-11-13---|
---------------------------------18--------------------------|
o------------------------------19----------------------------|o


----------------------------------------------------------------|
--------------------14--------------14-15-----------------------|
-11-13-13/15--13-11----15p13-15--15-------15-13--11-13-15-15/18-|
----------------------------------------------------------------|
----------------------------------------------------------------|
----------------------------------------------------------------|


---------------------------------------------------------------|
---------------------------------------------------------------|
-15-13--11-----------11-11/13----------------------------------|
-----------13--13-15----------15-13--13-11-16-15-11-13---------|
---------------------------------------------------------------|
---------------------------------------------------------------|

---------------------------------------------------------------|
---------------------------------------------------------------|
---------------------------------------------------------------|
--13-11-16-15-11-13----------15--13-11-16-15-11-13-------------|
---------------------------18----------------------------------|
-------------------------19------------------------------------|
Tap to rate this tab
 
# A B C D E F G H I J K L M N O P Q R S T U V W X Y Z