Song name
# A B C D E F G H I J K L M N O P Q R S T U V W X Y Z

The Protomen - Keep Quiet tab

This is my first tab so go easy on me.

Verse - simple strumming to the song
e|----------------------------------------|
b|----------------------------------------|
g|---------------------------------6-6-6--|
d|-66-6-66-6-444-----2-222-2-2-2-4-6-6-6--| x 4
a|-66-6-66-6-444-x2--2-222-2-2-2-4-4-4-4--|
E|-44-4-44-4-222-----0-000-0-0-0-2--------|

Chorus - played along with the backing female vocals
e|----------------------------------------|
b|-12-11-----12-11-----16-14-12--16-14/19-|
g|-------13--------13---------------------| 
d|----------------------------------------| x 2
a|----------------------------------------|
E|----------------------------------------|

Outro
e|----------------------------------------|
b|----------------------------------------|
g|----------------------------------------| 
d|-6-8-9--6-8-9---6-11-9--6-11-13-14------| Until the end of the song
a|-6-8-9--6-8-9---6-11-9--6-11-13-14------|
E|-4-6-7--4-6-7---4-9--7--4-9--11-12------|
Tap to rate this tab
 
# A B C D E F G H I J K L M N O P Q R S T U V W X Y Z