Song name
# A B C D E F G H I J K L M N O P Q R S T U V W X Y Z

The Protomen - Intermission tab

Solo Guitar Only:



---1--3--3/5----3--1-----------------0------------1--0------------|
----------------------3-----------3---------3--1--------1---------|
-----------------------------2/3---------------------------2------|
------------------------------------------------------------------|
------------------------------------------------------------------|
------------------------------------------------------------------|


---1--3--3/5----3--1-----------------0------------1--0------------|
----------------------3-----------3---------3--1--------1--3------|
-----------------------------2/3----------------------------------|
------------------------------------------------------------------|
------------------------------------------------------------------|
------------------------------------------------------------------|


---1--3--3/5----3--1--8---------------------8--9------------------|
--------------------------10p8--10------10---------10--8----------|
------------------------------------------------------------------|
------------------------------------------------------------------|
------------------------------------------------------------------|
------------------------------------------------------------------|


---------------10--8----------------------0--1--1/3---0-----------|
---8p6--8--10---------10--8--5--3------3-----------------3--------|
------------------------------------------------------------------|
------------------------------------------------------------------|
------------------------------------------------------------------|
------------------------------------------------------------------|


---------1--0------------------1--0--------------------0----------|
---3--1--------1---------3--1--------1--3-----------3-------------|
------------------2----------------------------2/3----------------|
------------------------------------------------------------------|
------------------------------------------------------------------|
------------------------------------------------------------------|
------------------------------------------------------------------|


---------1--0------------|
---3--1--------1--3------|
-------------------------|
-------------------------|
-------------------------|
-------------------------|



This is my first tab, so if you have any suggestions, please let me know.
Enjoy!
Tap to rate this tab
# A B C D E F G H I J K L M N O P Q R S T U V W X Y Z