Song name
# A B C D E F G H I J K L M N O P Q R S T U V W X Y Z

The Protomen - Hope Rides Alone tab

Link to the band site   www.protomen.com
Here it is, the first song in the first saga... Hope Rides Alone


Intro
e|----------------------------------------------------------------------------|
B|----------------------------------------------------------------------------|
G|-------7-----7-----7-----4-----5-----5-----5-----5-----4-----4-----4-----4--|
D|-----7-----7-----7-----7-----7-----7-----7-----7-----5-----5-----5-----5----|
A|---5-----5-----5-----5-----8-----8-----8-----8-----7-----7-----7-----7------|
E|----------------------------------------------------------------------------|

 e|------------------------------------------------------------------------------|
B|-------------------------------------------------------------------------------|
G|-------------------------------7-----7-----7-----7----12----10-----5-----5-----|
D|-------7-----7-----7-----5---7-----7-----7-----7----12----12-----7-----7-------|
A|-----7-----7-----7-----7---5-----5-----5-----5----10----10-----8-----8---------|
E|---5-----5-----5-----5---------------------------------------------------------|


e|-----------------------------------------------------|
B|-----------------------------------------------------|
G|-------4-----4-----4-----4---------------------------|
D|-----5-----5-----5-----5-------7-----7-----7-----5---|x2
A|---7-----7-----7-----7-------7-----7-----7-----7-----|
E|---------------------------5-----5-----5-----5-------|


e|----------------------------------------------------------------------------|
B|----------------------------------------------------------------------------|
G|---7--10---9-------7--12--10---9-------7--10---9-------7--12--10---9-------7|
D|---7--10---9---7---7--12--10---9---7---7--10---9---7---7--12--10---9---7----|
A|---5---8---7---7---5--10---8---7---7---5---8---7---7---5--10---8---7---7---5|
E|---------------5-------------------5---------------5-------------------5----|

 acoustic part....at least my interpretation of it.....
e|---0-0-0-0-0-0-0-0-0-0-0-0-0-0-0-0-0-0-0-0-0-0-0-0-0-0-0-0-0-0-0-0-0-0-0-0-0|figure
B|---3-3-3-3-3-3-3-3-3-3-3-3-3-3-3-3-3-3-3-3-3-3-3-3-3-3-3-3-3-3-3-3-3-3-3-3-3|out
G|----------------------------------------------------------------------------|the
D|----------------------------------------------------------------------------|strum
A|----------------------------------------------------------------------------|rhythm
E|----------------------------------------------------------------------------|

play 8 of each of the following chords
e|----------------------------------------------------------------------------|
B|----------------------------------------------------------------------------|
G|---7--10--13--14---7--12---9------------------------------------------------|
D|---7--10--13--14---7--12---9---7--------------------------------------------|x2
A|---5---8--11--12---5--10---7---7--------------------------------------------|
E|-------------------------------5--------------------------------------------|

 and as the smoke cleared..... [8 of each as well]
e|----------------------------------------------------------------------------|
B|----------------------------------------------------------------------------|
G|---7--10--13--14--13--14--13--14--------------------------------------------|
D|---7--10--13--14--13--14--13--14--------------------------------------------|
A|---5---8--11--12--11--12--11--12--------------------------------------------|
E|----------------------------------------------------------------------------|

e|--------------|
B|--------------|
G|--------------|x15
D|---0-0-0------|
A|---5-5-5------|
E|--------------|

play each chord 8 times (except for the 2 next to each other, only 4 times each for those)
e|----------------------------------------------------------------------------|
B|----------------------------------------------------------------------------|
G|---7--10--13--14---7--1210---9----------------------------------------------|
D|---7--10--13--14---7--1210---9---7------------------------------------------|
A|---5---8--11--12---5--10-8---7---7------------------------------------------|x4
E|---------------------------------5------------------------------------------|

just keep playing this with drums until song is finished
e|--------|
B|--------|
G|--------|
D|---0----|
A|---5----|
E|--------|

whoo... well, the only thing i'm unsure about is the acoustic part in the middle of the song...
maybe if i find some other program to take out the other parts of the song, i can figure 
out. the rest
is pretty much ok..... any questions, comments, feedback or whatever... email em with the song in the
subject line.... Jamesgab007@aol.com

Special thanks to:
The Protomen, for making such an awesome CD and touring in the east (that's me!)
The people in the forums who decided to make a topic on making the tab, which gave mm a 
to finally do it.
Tap to rate this tab
 
# A B C D E F G H I J K L M N O P Q R S T U V W X Y Z