Song name
# A B C D E F G H I J K L M N O P Q R S T U V W X Y Z

The Prototypes - Kaleidoscope tab

----------------------------------------------------------------------------
			  The Prototypes - Kaleidoscope
----------------------------------------------------------------------------
Tabbed by: Diegorocks
Email: diego91lp

Tuning: Standard(E a g b e)

I like very much this song, heard it on Fifa 07. It's bad that this is the only tab for 
song, so i tried this to be perfect. corrections, mail me.

Intro:

e|-------------|
B|-------------|
G|--4----------|
D|--4-----x8---|  ...then:
A|-------------|
E|-------------|

Guitar 1:  Main riff
e|-------------------------------------------------------------------------|
B|-------------------------------------------------------------------------|
G|-------------------------------------------------------------------------|
D|---------4-5-0-0-----------4-5-0-0------------4-5-0-0------------4-5-0-0-|
A|-2-2-2-2----------0-0-0-0------------------------------------------------|
E|-------------(x2)--------------(x2)--3-3-3-3------(x2)---2-2-2-2-----(x2)|

Guitar 2
e|-x-x-10-10---x-x-10----------x-x-9-9---x-x-9--|
B|-x-x--x--x---x-x--x----(x3)--x-x-7-7---x-x-7--|
G|-x-x--7--7---x-x--7----------x-x-6-6---x-x-6--|
D|----------------------------------------------|
A|----------------------------------------------|
E|----------------------------------------------|

e|-x-x-10-10---x-x-10----------9-9--9-9--9-9--9-9--9999-|
B|-x-x--x--x---x-x--x----(x3)--7-7--7-7--7-7--7-7--7777-|
G|-x-x--7--7---x-x--7----------9-9--9-9--9-9--9-9--9999-|
D|------------------------------------------------------|
A|------------------------------------------------------|
E|------------------------------------------------------|

Verse 1

Guitar 1
Same as intro but at the end:
e|-------------------------------------|
B|-------------------------------------|
G|-------------------------------------|
D|----------4-5-0-0--4-5-0-0--4-5-0-0--|
A|-------------------------------------|
E|--2-2-2-2----------------------------|

Guitar 2:   Bm  A  G  F#


Pre-chorus (both guitars)
e|------------------------------------------------|
B|------------------------------------------------|
G|--4-----------6-----------7-----------9---------|
D|--x--(x8)-----x--(x8)-----x--(x8)-----x--(x8)---|
A|--2-----------4-----------5-----------7---------|
E|------------------------------------------------|


Chorus:
e|------------------------------------------|
B|------------------------------------------|
G|-4---------------------4---------7--------|
D|-4-----5----2----4-----4----5----7----4---|   x2
A|-2-----5----2----4-----2----5----5----4---|
E|-------3----0----2----------3---------2---|

Verse 2: same as 1

first part only plays guitar 1, then both

Chorus

then:
e|-------------------------------------------------------|
B|-------------------------------------------------------|
G|---4---------------2-------------0---------------------|
D|---4----x12--------2----x4-------0----x8------4--------|
A|----------------------------------------------4----x8--|
E|-------------------------------------------------------|


Pre-chorus


Chorus


Outro:
e|------------------------------|
B|------------------------------|
G|--4-4-4-4--4---4----4------4--|
D|--4-4-4-4--4---4----4------4--|
A|------------------------------|
E|------------------------------|

and that's it. Very easy to play. any corrections: diego91lp@hotmail.com
Tap to rate this tab
# A B C D E F G H I J K L M N O P Q R S T U V W X Y Z