Song name
# A B C D E F G H I J K L M N O P Q R S T U V W X Y Z

The Prototypes - Je Ne Te Connais Pas tab

Verse

the live version sounds like this:
e------------------|
B------------------|
G------------------|
D--2--4----7--9----|
A--2--4----7--9----|
E--0--2----5--7----|

However, if you bought it on iTunes it will sound a little more like this.

e-------------------|
B-------------------|
G--9--11----14--16--|
D--9--11----14--16--|
A--7--9-----12--14--|
E-------------------|

SAME THING JUST AN OCTAVE HIGHER!
If you have two guitars you could do both

Chorus:

e---------------------------------|
B---------------------------------|
G---------------------------------|
D-2-2-2---2--2-7-5-2-2-2---2--2-5-|
A-2-2-2---2--2-7-5-2-2-2---2--2-5-|
E-0-0-0---0--0-5-3-0-0-0---0--0-3-|

(also can be done an an octave higher)

Solo

e-------------------------I--------------------------|I I
B-------------------------I--------------------------|oI I
G-------------------------I--------------------------|I I
D-0///////21b-20---20-19--I-----21b-20---20-19-------|I I
A-------------------------I--------------------------|oI I
E-------------------------I--------repeat this-------|I I
Tap to rate this tab
# A B C D E F G H I J K L M N O P Q R S T U V W X Y Z