Song name
# A B C D E F G H I J K L M N O P Q R S T U V W X Y Z

The Psycho Realm - Show Of Force tab

Tabbed by: Rodrigo Antonino Pascual
e-mail: enigma_ch@hotmail.com




This is basically the whole song, just piece it together.



   Gtr I
    Dm
e||-0-1-1----0-1-1-1-1-3-1-----0-1-1-----0-1-1-1-1-3-1-----||
B||-3-3-3----3-3-3-3-3-3-3-----3-3-3-----3-3-3-3-3-3-3-----||
G||-2-2-2----2-2-2-2-2-2-2-----2-2-2-----2-2-2-2-2-2-2-----o|  2x
D||-0-0-0----0-0-0-0-0-0-0-----0-0-0-----0-0-0-0-0-0-0-----o|
A||--------------------------------------------------------||
E||--------------------------------------------------------||

    Am
e||-----0------------0------------0------------0--------||
B||-1-1-1--------1-1-1--------1-1-1--------1-1-1--------||
G||-2-2-2--------2-2-2--------2-2-2--------2-2-2--------||
D||-2-2-2--------2-2-2--------2-2-2--------2-2-2--------||
A||-0-0-0--------0-0-0--------2-2-2--------2-2-2--------||
E||-----------------------------------------------------||
    PM.          . .          . .          . .



   Gtr II
   Repeat many times as you want.
e||-----------------------------------3------------------|
B||-3-5-6--------6-5-3-------3-5-6--------6-5-3------3---|
G|o----------------------------------------------------5-|
D|o------------------------------------------------------|
A||------------------------------------------------------|
E||------------------------------------------------------|

e||--------------------------------------------------------||
B||-----------------------------------3--------------------||
G||-2-4-5--------5-4-2-------2-4-5--------5-4-2------2-4-5-o| 
D||--------------------------------------------------------o| 
A||--------------------------------------------------------||
E||--------------------------------------------------------||



Vizcaino, BCS, México.
Tap to rate this tab
# A B C D E F G H I J K L M N O P Q R S T U V W X Y Z