Song name
# A B C D E F G H I J K L M N O P Q R S T U V W X Y Z

The Qemists - Tomcat tab

****This is my first tab, it's from "Blitz" movie, very nice song ;)****

e|--------------------------------------------------------------------------|
B|--------------------------------------------------------------------------|
G|--------------------------------------------------------------------------|
D|--------------------------------------------------------------------------|
A|--------------------------------------------------------------------------|
E|----6-6--6-6--6-6--6-6--6-6--6-6--6-6--6-6--------------------------------|



e|--------------------------------------------------------------------------|
B|--------------------------------------------------------------------------|
G|--------------------------------------------------------------------------|
D|--------------------------------------------------------------------------|
A|--------------------------------------------------------------------------|
E|----1--1-1-1-9--9-9-9-6--6-6-6--6-6-6-6-----------------------------------|
x2


e|--------------------------------------------------------------------------|
B|--------------------------------------------------------------------------|
G|--------------------------------------------------------------------------|
D|--3-3-3--12-12-12---9-9-9--8-8-8------------------------------------------|
A|--3-3-3--12-12-12---9-9-9--8-8-8------------------------------------|
E|--1-1-1--9--9--9----6-6-6--5-5-5------------------------------------------|
x2


e|--------------------------------------------------------------------------|
B|--------------------------------------------------------------------------|
G|--------------------------------------------------------------------------|
D|--3-3--1212-9-9--9-9------------------------------------------------------|
A|--3-3--1212-9-9--9-9------------------------------------------------------|
E|--1-1--9-9--6-6--6-6------------------------------------------------------|
x2



and the whole song is kinda like this, have fun ;)
Tap to rate this tab
# A B C D E F G H I J K L M N O P Q R S T U V W X Y Z