Song name
# A B C D E F G H I J K L M N O P Q R S T U V W X Y Z

The Quakes - I Dont Come From Nowhere chords

Tabbed by:Skankster1310
Email:ebautista123@gmail.com

|----------------------------------------------------------------|
|----------------------------------------------------------------|
|----------------------------------------------------------------|
|-------2--------------2------------------2--------------2-------|
|-----2---2---------2----2--------------3---3----------3---3-----|
|--0---------0----0---------0--------0---------0-----0--------0--|

|--------------------------------------------------------------------|
|--------------------------------------------------------------------|
|--------------------------------------------------------------------|
|--------2---------------2-----------------2----------------2--------|
|-----4----4----------4----4-------------3---3-----------3-----3-----|
|--0----------0----0----------0-------0---------0------0----------0--|

|-----------------------------------------------------------------|
|-----------------------------------------------------------------|
|-----------------------------------------------------------------|
|--------2--------------2------------------2--------------2-------|
|-----2----2---------2----2--------------3---3----------3---3-----|
|--0----------0----0---------0--------0---------0-----0--------0--|

|------------------------------------------------------------------|
|------------------------------------------------------------------|
|------------------------------------------------------------------|
|--------2---------------2-----------------2----------------2------|
|-----4----4----------4----4-------------3---3-----------3----3----|
|--0----------0----0----------0-------0---------0-----0---------0--|

|---------------------------------------------------------------|
|---0--------------------0----------------0------------------0--|
|---0--------------------0----------------0------------------0--|
|---2--------------------2----------------2------------------2--|
|---2--------------------3----------------2------------------3--|
|---0--------------------0----------------0------------------0--|

|---------------------------------------------------------------|
|---0--------------------0----------------0------------------0--|
|---0--------------------0----------------0------------------0--|
|---2--------------------2----------------2------------------2--|
|---2--------------------3----------------2------------------3--|
|---0--------------------0----------------0------------------0--|

|-----------------------------------------------------------------|
|-----------------------------------------------------------------|
|-----------------------------------------------------------------|
|--------2---------------2------------------2--------------2------|
|-----2----2---------2----2--------------3---3----------3---3-----|
|--0----------0----0---------0--------0---------0-----0--------0--|

|-----------------------------------------------------------------|
|-----------------------------------------------------------------|
|-----------------------------------------------------------------|
|--------2---------------2----------------2----------------2------|
|-----4----4----------4----4------------3---3-----------3----3----|
|--0----------0----0----------0-------0--------0------0--------0--|

|-----------------------------------------------------------------|
|-----------------------------------------------------------------|
|-----------------------------------------------------------------|
|--------2--------------2------------------2--------------2-------|
|-----2----2---------2----2--------------3---3----------3---3-----|
|--0----------0----0---------0--------0---------0-----0--------0--|

|------------------------------------------------------------------|
|------------------------------------------------------------------|
|------------------------------------------------------------------|
|--------2---------------2-----------------2---------------2-------|
|-----4----4----------4----4-------------3---3-----------3----3----|
|--0----------0----0----------0-------0---------0-----0---------0--|
Tap to rate this tab
# A B C D E F G H I J K L M N O P Q R S T U V W X Y Z