Song name
# A B C D E F G H I J K L M N O P Q R S T U V W X Y Z

The Quakes - Usa Psychos tab

----------------------------------------------------------------------------
                        The Quakes - U.S.A Psycho's
----------------------------------------------------------------------------

Intro:
e----------------------|
b----------------------|
g-----------9----------|
d-----------9----------|
a--10---9---7----------|
e-8--8-7--7------------|

verse
e------------|---------------------------------------------------------|
b------------|---------------------------------------------------------|
g------------|---------------------------------------------------------|
d-10-10-10-9-|-2-2-2-2-2-2-2-2-5-5-5-5-5-5-5-5-10-10-10-10-10-10-10-10-|
a-10-10-10-9-|-2-2-2-2-2-2-2-2-5-5-5-5-5-5-5-5-10-10-10-10-10-10-10-10-|
e-8--8--8--7-|-0-0-0-0-0-0-0-0-3-3-3-3-3-3-3-3-8--8--8--8--8--8--8--8--|
               palm mute everything -
e------------------------------------|
b------------------------------------|
g------------------------------------|
d-10-10-10-10-10-10-10-10-12-9-9-9-9-|
a-10-10-10-10-10-10-10-10-12-9-9-9-9-|
e-8--8--8--8--8--8--8--8--10-7-7-7-9-|

repeat intro and verse

then the break is the verse repeated and this little part
e---12---|
b-12-----|
g--------|harmonics
d--------|
a--------|
e--------|

outro:

e-----------------|------------|
b-----------------|------------|
g-----------------|------------|
d-2-5-2-5-2-5-2-5-|-10-10-10-9-|
a-2-5-2-5-2-5-2-5-|-10-10-10-9-|
e-0-3-0-3-0-3-0-3-|-8--8--8--7-|
palm muted         not palm muted
Tap to rate this tab
# A B C D E F G H I J K L M N O P Q R S T U V W X Y Z