Song name
# A B C D E F G H I J K L M N O P Q R S T U V W X Y Z

The Quakes - Revenge Is Mine tab

-----------------------------------------------------------------------------
                            Revenge Is Mine - Quakes
-----------------------------------------------------------------------------



e------------------------------------------------|
b------------------------------------------------|
g------------------------------------------------|
d-----0-3-4------0-5-4-----0-3-4-3-4-5-2/3-4-----|x4
a-2--2-2-----2--2-2----2--2-2--------------------|
e------------------------------------------------|

e-3---0---7\------|
b-3---0---7\------|
g-4---1---8\------|
d-5---2---9\------|
a-5---2---9\------|
e-3---0---7\------|

e------------------------------------------------|
b------------------------------------------------|
g------------------------------------------------|
d-----0-3-4------0-5-4-----0-3-4-3-4-5-2/3-4-----|
a-2--2-2-----2--2-2----2--2-2--------------------|
e------------------------------------------------|

e-3---0---7\------|
b-3---0---7\------|
g-4---1---8\------|
d-5---2---9\------|
a-5---2---9\------|
e-3---0---7\------|

e------------------------------------------------|
b------------------------------------------------|
g------------------------------------------------|
d-----0-3-4------0-5-4-----0-3-4-3-4-5-2/3-4-----|
a-2--2-2-----2--2-2----2--2-2--------------------|
e------------------------------------------------|

e--3-2---3-2---3-2---3-2-----------|
b--3-2---3-2---3-2---3-2-----------|
g--4-3---4-3---4-3---4-3-----------|
d--5-4---5-4---5-4---5-4-4-2-------|
a--5-4---5-4---5-4---5-4----5-4-2--|
e--3-2---3-2---3-2---3-2-----------|


e------------------------------------------------|
b------------------------------------------------|
g------------------------------------------------|
d-----0-3-4------0-5-4-----0-3-4-3-4-5-2/3-4-----|x2
a-2--2-2-----2--2-2----2--2-2--------------------|
e------------------------------------------------|

e-3---0---7\------|
b-3---0---7\------|
g-4---1---8\------|
d-5---2---9\------|
a-5---2---9\------|
e-3---0---7\------|

e------------------------------------------------|
b------------------------------------------------|
g------------------------------------------------|
d-----0-3-4------0-5-4-----0-3-4-3-4-5-2/3-4-----|
a-2--2-2-----2--2-2----2--2-2--------------------|
e------------------------------------------------|

e-3---0---7\------|
b-3---0---7\------|
g-4---1---8\------|
d-5---2---9\------|
a-5---2---9\------|
e-3---0---7\------|

e------------------------------------------------|
b------------------------------------------------|
g------------------------------------------------|
d-----0-3-4------0-5-4-----0-3-4-3-4-5-2/3-4-----|
a-2--2-2-----2--2-2----2--2-2--------------------|
e------------------------------------------------|

e--3-2---3-2---3-2---3-2------------|
b--3-2---3-2---3-2---3-2------------|
g--4-3---4-3---4-3---4-3------------|
d--5-4---5-4---5-4---5-4-4----------|
a--5-4---5-4---5-4---5-4---7-5-6----|
e--3-2---3-2---3-2---3-2---------7--|

e------------------------------------------------|
b------------------------------------------------|
g------------------------------------------------|
d-----0-3-4------0-5-4-----0-3-4-3-4-5-2/3-4-----|
a-2--2-2-----2--2-2----2--2-2--------------------|
e------------------------------------------------|

e-3-3--2-2--3-3--2---3-3--2-2--3-3--2---3-3--2-2--3-3-----|
b-3-3--2-2--3-3--2---3-3--2-2--3-3--2---3-3--2-2--3-3-----|
g-4-4--3-3--4-4--3---4-4--3-3--4-4--3---4-4--3-3--4-4-----|
d-5-5--4-4--5-5--4---5-5--4-4--5-5--4---5-5--4-4--5-5-----|
a-5-5--4-4--5-5--4---5-5--4-4--5-5--4---5-5--4-4--5-5-----|
e-3-3--2-2--3-3--2---3-3--2-2--3-3--2---3-3--2-2--3-3-----|
                  Hey!               hey!

e---2---3-3--2-2--3-3--2----3-3--9-7--3-3-10-9-7---------|
b---2---3-3--2-2--3-3--2----3-3-------3-3--------7(bend)-|
g---3---4-4--3-3--4-4--3----4-4-------4-4----------------|
d---4---5-5--4-4--5-5--4----5-5-------5-5----------------|
a---4---5-5--4-4--5-5--4----5-5-------5-5----------------|
e---2---3-3--2-2--3-3--2----3-3-------3-3----------------|
     Hey!

e---9-7--10-9-7------------------------------------2---1--0------|
b---------------7(bend)--/8-7-/5-3(bend)----------------------3--|
g----------------------------------------/4-3(bend)--5---4--3----|
d----------------------------------------------------------------|
a----------------------------------------------------------------|
e----------------------------------------------------------------|

e------------------------------------------------|
b------------------------------------------------|
g------------------------------------------------|
d-----0-3-4------0-5-4-----0-3-4-3-4-5-2/3-4-----|
a-2--2-2-----2--2-2----2--2-2--------------------|
e------------------------------------------------|

e------------------------------------------------|
b------------------------------------------------|
g------------------------------------------------|
d-----0-3-4------0-5-4-----0-3-4-3-4-5-2/3-4-----|
a-2--2-2-----2--2-2----2--2-2--------------------|
e------------------------------------------------|

e--3-2---3-2---3-2---3-2-----------|
b--3-2---3-2---3-2---3-2-----------|
g--4-3---4-3---4-3---4-3-----------|
d--5-4---5-4---5-4---5-4-4-2-------|
a--5-4---5-4---5-4---5-4----5-4-2--|
e--3-2---3-2---3-2---3-2-----------|

e------------------------------------------------|
b------------------------------------------------|
g------------------------------------------------|
d-----0-3-4------0-5-4-----0-3-4-3-4-5-2/3-4-----|x8
a-2--2-2-----2--2-2----2--2-2--------------------|
e------------------------------------------------|
Tap to rate this tab
# A B C D E F G H I J K L M N O P Q R S T U V W X Y Z