Guitaretab - guitar tabs
Song name
# A B C D E F G H I J K L M N O P Q R S T U V W X Y Z

The Raconteurs - Hands tab

Hands by Ataxia
From AW II

Sorry if this is a bit hard to understand. I've tried
to label different sections to split the tab up, but 
it might not be clear. Some of the sections are the
same, but others have tiny differences. 
I've also tried to tab out the timing changes, which 
may be hard to understand at first, but not once you 
listen to the song. I think this tab is about 95% 
accurate but any corrections are welcome.

h - hammer on
p - pull off
/ - slide up
* - different timings (see tab)

Enjoy!

Section 1

e|-------------------------------------------|
B|-------------------------------------------|
G|-----------------------9-11--11-9-11-9-----|
D|---7-9--9-7-9-7----/11-----------------12--| x2
A|-9--------------9--------------------------|
E|-------------------------------------------|

e|-------------------------------------------------|
B|-------------------------------------------------|
G|-------------------------9-11--11-9-11-9---------|
D|---7-9--9-7-9-7------/11-----------------12-12*--| x4
A|-9--------------9-9*-----------------------------|
E|-------------------------------------------------|
*timing of these notes is changed on the 3rd play.

e|-------------------------------------------|
B|-------------------------------------------|
G|-----------------------9-11--11-9-11-9-----|
D|---7-9--9-7-9-7----/11-----------------12--| x2
A|-9--------------9--------------------------|
E|-------------------------------------------|


Section 2

e|--------------------------------|
B|----10--------------12----------|
G|-11----11-9------11----11-9-----|
D|------------12--------------12--| x3
A|--------------------------------|
E|--------------------------------|

e|------------------------------------------|
B|----10--------------12--------------------|
G|-11----11-9------11----11h12p11-----------|
D|------------12------------------12-11-12--|
A|------------------------------------------|
E|------------------------------------------|


Section 3

e|-------------------------------------------------|
B|-------------------------------------------------|
G|-------------------------9-11--11-9-11-9---------|
D|---7-9--9-7-9-7------/11-----------------12-12*--| x6
A|-9--------------9-9*-----------------------------|
E|-------------------------------------------------|
*timing of these notes is changed on the 3rd and 4th play.


Section 4

e|--------------------------------------------14--|
B|------------------------------12---12h14p12-----|
G|----------------11---11h14p11-------------------|
D|---7-9---9h11p9---------------------------------|
A|-9----------------------------------------------|
E|------------------------------------------------|


Section 5

e|-------------------------------------------------|
B|-------------------------------------------------|
G|-------------------------9-11--11-9-11-9---------|
D|---7-9--9-7-9-7------/11-----------------12-12*--| x6
A|-9--------------9-9*-----------------------------|
E|-------------------------------------------------|
*timing of these notes is changed on the 3rd and 4th play.

e|-------------------------------------------------|
B|-------------------------------------------------|
G|-------------------------9-11--11-9-11-9---------|
D|---7-9--9-7-9-7------/11-----------------12------| 
A|-9--------------9-9------------------------------|
E|-------------------------------------------------|

e|-------------------------------------------|
B|-------------------------------------------|
G|-----------------------9-11--11-9-11-9-----|
D|---7-9--9-7-9-7----/11-----------------12--| 
A|-9--------------9--------------------------|
E|-------------------------------------------|

e|-------------------------------------------------|
B|-------------------------------------------------|
G|-------------------------9-11--11-9-11-9---------|
D|---7-9--9-7-9-7------/11-----------------12-12*--| x3
A|-9--------------9-9*-----------------------------|
E|-------------------------------------------------|
*timing of these notes is changed on the 1st and 2nd play.

e|-------------------------------------------------|
B|-------------------------------------------------|
G|-------------------------9-11--11-9-11-9---------|
D|---7-9--9-7-9-7------/11-----------------12------| 
A|-9--------------9-9------------------------------|
E|-------------------------------------------------|


Section 6

e|--------------------------------|
B|----10--------------12----------|
G|-11----11-9------11----11-9-----|
D|------------12--------------12--| x3
A|--------------------------------|
E|--------------------------------|

e|------------------------------------------|
B|----10--------------12--------------------|
G|-11----11-9------11----11h12p11-----------|
D|------------12------------------12-11-12--|
A|------------------------------------------|
E|------------------------------------------|


Section 7
[ Tab from: http://www.guitaretab.com/t/the-raconteurs/143938.html ]
e|-------------------------------------------------|
B|-------------------------------------------------|
G|-------------------------9-11--11-9-11-9---------|
D|---7-9--9-7-9-7------/11-----------------12-12---| 
A|-9--------------9-9------------------------------|
E|-------------------------------------------------|

e|-------------------------------------------------|
B|-------------------------------------------------|
G|-------------------------9-11--11-9-11-----------|
D|---7-9--9-7-9-7------/11-------------------------| 
A|-9--------------9-9------------------------------|
E|-------------------------------------------------|

e|-------------------------------------------------|
B|-------------------------------------------------|
G|-------------------------9-11--11-9-11-9---------|
D|---7-9--9-7-9-7------/11-----------------12-12---| 
A|-9--------------9-9------------------------------|
E|-------------------------------------------------|

e|-------------------------------------------------|
B|-------------------------------------------------|
G|-------------------------9-11--11-9-11-9---------|
D|---7-9--9-7-9-7------/11-----------------12------| 
A|-9--------------9-9------------------------------|
E|-------------------------------------------------|


Section 8

e|-------------------------------------------------------12-12h14p12-14--|
B|-----------------------------------10-10h12p10-12---14-----------------|
G|------------------9-9h11p9-11---11-------------------------------------|
D|---7-7h9p7-9---11------------------------------------------------------|
A|-9---------------------------------------------------------------------|
E|-----------------------------------------------------------------------|


Section 9

e|-------------------------------------------------|
B|-------------------------------------------------|
G|-------------------------9-11--11-9-11-9---------|
D|---7-9--9-7-9-7------/11-----------------12-12*--| x3 
A|-9--------------9-9*-----------------------------|
E|-------------------------------------------------|
*timing of these notes is changed on the third play.

e|-------------------------------------------------|
B|-------------------------------------------------|
G|-------------------------9-11--11-9-11-9---------|
D|---7-9--9-7-9-7------/11-----------------12------| 
A|-9--------------9-9------------------------------|
E|-------------------------------------------------|

e|-------------------------------------------------|
B|-------------------------------------------------|
G|-------------------------9-11--11-9-11-9---------|
D|---7-9--9-7-9-7------/11-----------------12-12---| 
A|-9--------------9-9------------------------------|
E|-------------------------------------------------|

e|-------------------------------------------------|
B|-------------------------------------------------|
G|-------------------------9-11--11-9-11-9---------|
D|---7-9--9-7-9-7------/11-----------------12------| 
A|-9--------------9-9------------------------------|
E|-------------------------------------------------|


Section 10

e|----------------------------------|
B|------10--------------12----------|
G|--11-----11-9------11----11-9-----|
D|-(12)---------12--(12)--------12--| x3
A|----------------------------------|
E|----------------------------------|

e|---------------------------------------|
B|-----10--------------12----------------|
G|--11----11-9------11----11-9-----------|
D|-(12)--------12--------------12-11-12--|
A|---------------------------------------|
E|---------------------------------------|


Section 11

e|-------------------------------------------------|
B|-------------------------------------------------|
G|-------------------------9-11--11-9-11-9---------|
D|---7-9--9-7-9-7------/11-----------------12-12*--|  
A|-9--------------9--------------------------------|
E|-------------------------------------------------|

e|-------------------------------------------------|
B|-------------------------------------------------|
G|-------------------------9-11--11-9-11-9---------|
D|---7-9--9-7-9-7------/11-----------------12-12*--| x3 
A|-9--------------9-9*-----------------------------|
E|-------------------------------------------------|
*timing of these notes is changed on all plays.


Section 12

e|-------------------------------------------------------12-12h14p12-14--|
B|-----------------------------------10-10h12p10-12---14-----------------|
G|------------------9-9h11p9-11---11-------------------------------------|
D|---7-7h9p7-9---11------------------------------------------------------|
A|-9---------------------------------------------------------------------|
E|-----------------------------------------------------------------------|


Section 13

e|-------------------------------------------------|
B|-------------------------------------------------|
G|-------------------------9-11--11-9-11-9---------|
D|---7-9--9-7-9-7------/11-----------------12-12*--| x8 
A|-9--------------9-9*-----------------------------|
E|-------------------------------------------------|
*timing of these notes is changed on 5th, 6th and 7th plays.

e|-------------------------------------------|
B|-------------------------------------------|
G|-----------------------9-11--11-9-11-9-----|
D|---7-9--9-7-9-7----/11-----------------12--|
A|-9--------------9--------------------------|
E|-------------------------------------------|

e|---------------|
B|-10/12---------|
G|---------------|
D|---------------|
A|---------------|
E|---------------| 
Related for Hands tab
×
Hands