Song name
# A B C D E F G H I J K L M N O P Q R S T U V W X Y Z

The Raconteurs - You Dont Understand Me tab

----------------------------------------------------------------------------
		  The Raconteurs-You Don't Understand Me
----------------------------------------------------------------------------

Tabbed by: st4m
Tuning: Standard

Piano intro arranged for guitar:    
1|-----------------------------------------------------------------|
2|---------------------------------(hold)--------------------------|
3|----------7-6---------7-6-------9----------9-9-9-7h9-------------|
4|---7/9--9-----9---7-7------4/6--9----------9-9-9-7h9-------------|
5|---7/9--------------------------7----------7-7-7-----------------|
6|-----------------------------------------------------------------|

1|-----------------------------------------------------------------|
2|-----------------------------------------------------------------|
3|----------7-6---------7-6-------4--(hold)-4-7-6-4----------------|
4|---7/9--9-----9---7-7------4/6--6--------6-6---------------------|
5|---7/9-----------------------------------------------------------|
6|-----------------------------------------------------------------|

Verse:

Bm       A            E   E7                        
 You don't understand me              
 but if the feeling was right                                  
 you might comprehend me                                
 and why do you feel the need to tease me
 why don't you turn it around
 it might be easier to please me

 He often uses the phrase G|---7h11p7-|  in between the verse.
 _________________________D|--9-------|______________________

Chorus:
            G      D               A      G#m
And there's always another point of view
  G             D                A     G#m
a better way to do the things we do
    G                D              A      E
and how can you know me, and I know you...
..if nothing is true?

Verse:

Bm          A                  E     E7
What do you think that you are doing
who is the fool, the fooled, or the fool that you are fooling
maybe I just don't see the reason
but in the core of my heart
your ignorance is treason

Chorus:
            G      D               A      G#m
And there's always another point of view
  G             D                A     G#m
a better way to do the things we do
    G                D              A      E
and how can you know me, and I know you...
..if nothing is true?

Bridge:

A                        D  C A
You think you know how I feel
A                      D  C A
it's not that big of a deal
A                              G  F A
there's no such thing it's not real
E   D
Ooooh

Bm       A            E   E7                        
 You don't understand me               
 but if the feeling was right                                  
 you might comprehend me                                
 and I don't claim to understand you
 but I've been looking around
 and I haven't found, anybody like you

Chorus:
            G      D               A      G#m
And there's always another point of view
  G             D                A     G#m
a better way to do the things we do
    G                D              A      E
and how can you know me, and I know you...
..if nothing is true?

 
Bm  A  E E7

Chorus:
            G      D               A      G#m
And there's always another point of view
  G             D                A     G#m
a better way to do the things we do
    G                D              A      E
and how can you know me, and I know you...
..if nothing is true

Bm    A    E E7
(In this part you can play some phrases in the pentatonic Bm-it sounds nice)
Tap to rate this tab
 
# A B C D E F G H I J K L M N O P Q R S T U V W X Y Z