Song name
# A B C D E F G H I J K L M N O P Q R S T U V W X Y Z

The Raconteurs - Hold Up tab

Hold Up - The Raconteurs
And this is only the intro!
Don't reject cause it's too short like you did last time >.< 

     Q    Q    E  E  E  E     Q    Q    E  E  E  E     
E||-------------------------|-------------------------||
B||-------------------------|-------------------------||
G||*--9----9-------2-----4--|--9----9-------2-----4--*||
D||*--9----9-------2-----4--|--9----9-------2-----4--*||
A||---7----7-------0-----2--|--7----7-------0-----2---||
E||---0----0----------------|--0----0-----------------||

The Amazing Bit!
   E  E  S  S E  S  S E  S  S   E     E  E  S  S E  E  E  Q     
|----------------------------------|---------------------------|
|--------7h-8----7h-8----7h-8h-10--|--------7h-8----7----------|
|-----9-------9-------9------------|-----9-------9-----9-------|
|----------------------------------|----------------------9----|
|----------------------------------|---------------------------|
|----------------------------------|---------------------------|


   E  E  S  S E  S  S E  S  S   E      S   E.   S   E.   S  S E  Q      
|----------------------------------|----------------------------------||
|--------7h-8----7h-8----7h-8h-10--|--10h-12---10h-12---10p-8---------||
|-----9-------9-------9------------|--------------------------9--9----||
|----------------------------------|----------------------------------||
|----------------------------------|----------------------------------||
|----------------------------------|----------------------------------||

Enjoy!
Use wah *hint hint* ;)
Tap to rate this tab
 
# A B C D E F G H I J K L M N O P Q R S T U V W X Y Z