Song name
# A B C D E F G H I J K L M N O P Q R S T U V W X Y Z

The Raconteurs - Consolers Of The Lonely tab

Hey guys! This is my second tab so be nice. I don't know how to use signs so please bear 
me. I sorta rushed this.
m=muted
/=slide or pull off lol

Standard Tuning

e|--------------------------|----------------------|-------------------|
B|--------------------------|----------------------|-------------------|
G|------3-----3/2/0---------|------3------------3-2|-----3----------3-2|
D|--------------------------|----------m0-m3-m0----|-------m0-m3-m0----|
A|--------------------------|----------------------|-------------------|
E|--0/3---------------------|--0/3-----------------|--0/3--------------|

e|--------------|----------------|--------------|
B|--------------|----------------|--------------|
G|-----------3-2|-----------3-2-0|--------------|
D|--m0-m3-m0----|--m0-m3-m0------|-5------------|
A|--------------|----------------|-5------------|
E|--------------|----------------|-3------------|
Well there you have it. This is my second tab. I believe this is the right intro tabs. 
fun!
Tap to rate this tab
 
# A B C D E F G H I J K L M N O P Q R S T U V W X Y Z