Song name
# A B C D E F G H I J K L M N O P Q R S T U V W X Y Z

The Raconteurs - Salute Your Solution tab

Ok... First off, i'll tab the easier way to play the best riff in the song.

e|----------------------------------|
b|----------------------------------|
g|----------------------------------|
d|-2~-------------------------------|
a|-2~----------------------11h12----|
E|-0~--0-3-5--3h5/7--10h12-------12~|

e|---------------------------|
b|---------------------------|
g|---------------------------|
d|---------------------------|
a|11h12----------------------|
E|------12--10h12-7--5h7-3-0~|

Now... the solo. Really hard to figure out. I know the first few notes but 
otherwise im gonna wing it. So bear with me... (The x's mean a ton of string noise 
for about four seconds)

e|-x-x-x-x|-15-12----------|x2                        
b|-x-x-x-x|-------15-12-15-|   
g|-x-x-x-x|----------------|
d|-x-x-x-x|----------------|
a|--------|----------------|
E|--------|----------------|

e|---------------------------|
b|----------------21-20-20---|
g|-5/15------21/0----------21|
a|-5/15----------------------|
d|-5/15-7/21-----------------|
E|---------------------------|

e|-------------------------------------------|
b|-------------------------------------------|
g|---Random-Notes/Improv-With-String-Noise---|
a|-------------------------------------------|
d|-------------------------------------------|
E|-------------------------------------------|

e|-18b-18b-18b--|
b|--------------|
g|------------9~|
a|------------9~|
d|------------7~|
E|--------------|

Not the best tab but i hope it'll be enough to get you started in the solo
Tap to rate this tab
# A B C D E F G H I J K L M N O P Q R S T U V W X Y Z