Song name
# A B C D E F G H I J K L M N O P Q R S T U V W X Y Z

The Raconteurs - You Dont Understand Me tab

-------------------------------------------------------------------------------
		You Don't Understand Me - The Raconteurs
-------------------------------------------------------------------------------
Tabbed by: Jacky III
Email: jacqueline.stuermer@web.de

Tuning: standard

Intro:
e|-7---7-10-9-6-5---5-10-9--7-7-7-7-7---7---7-10-9-6-5---5-10-9---10-12-14-12-10-|
B|--------------------------9-9-9-9-9--------------------------------------------|
G|-------------------------------------------------------------------------------|
D|-------------------------------------------------------------------------------|
A|-------------------------------------------------------------------------------|
E|-------------------------------------------------------------------------------|

Verse:
e|-7---7-10-9-7-5---5-10-9---7-7-7-7-7---7---7-10-9-7-5---5-10-9---10-12-14-12-10-|
B|--------------------------------------------------------------------------------|
G|--------------------------------------------------------------------------------|
D|--------------------------------------------------------------------------------|
A|--------------------------------------------------------------------------------|
E|--------------------------------------------------------------------------------|

then...
e|-10-12--14-12-10---7-7-7-7-10-9-7---10-10-10-10-9-7---10-10-10-9-10-12-10-12-14-|
B|--------------------------------------------------------------------------------|
G|--------------------------------------------------------------------------------|
D|--------------------------------------------------------------------------------|
A|--------------------------------------------------------------------------------|
E|--------------------------------------------------------------------------------|

-15-15-15-15-15-14-12-10-|
-------------------------|
-------------------------|
-------------------------|
-------------------------|
-------------------------|
Tap to rate this tab
 
# A B C D E F G H I J K L M N O P Q R S T U V W X Y Z