Song name
# A B C D E F G H I J K L M N O P Q R S T U V W X Y Z

The Raconteurs - Consolers Of The Lonely tab

-------------------------------------------------------------------------------
     Consoler of the Lonely - The Raconteurs
-------------------------------------------------------------------------------
Tabbed by:  fenderaddictee
Email:  fender.addict.1995@gmail.com

Tuning:  standard
Guitar 1: Lead  Guitar 2: Rhythm behind solo.
e|---------------------------------------------------------------------------|
B|-I-------------------------------------------------------------------------|
G|-N----------------3-----3p2p0-------------x--------3p2----------x-------3p2|
D|-T----------------4-----------------------x-x-x-x---------------x-x-x-x----|
A|-R----------------5-----------------------x---------------------x----------|
E|-O---------2h3-----------------------3---------------------2/3-------------|

e|---------------------------------------------------------------------------|
B|---------------------------------------------------------------------------|
G|--------3p2----------3p2p0-------------------------------------------------|
D|--x-x-x--------x-x-x--------5-----\----------------------------------------|
A|----------------------------5-----\----------------------------------------|
E|----------------------------3-----\----------------------------------------|

e|---------------------------------------------------------------------------|
B|-V-------------------------------------------------------------------------|
G|-E---------------------------5---x-3----5-------5-3-x-3-2-------------(2X)-|
D|-R----5\---x-3-----5-(4X)----5---x-3----5-(2X)--5-3-x-3-2----5\---x-3----5-|
A|-S----5\---x-3-----5---------3---x-1----3-------3-1-x-1-0----5\---x-3----5-|
E|-E----3\---x-1-----3-----------------------------------------3\---x-1----3-|

e|-C-------------------------------------------------------------------------|
B|-H-------------------------------------------------------------------------|
G|-O---7-7-7-7---10-10-10-10-------------------------------------------------|
D|-R---7-7-7-7---10-10-10-10-(2X)--------------------------------------------|
A|-U---5-5-5-5----8--8--8--8-------------------------------------------------|
E|-S-------------------------------------------------------------------------|
                                                                          
e|-B-------------------------------------------------------------------------|
B|-R-------------------------------------------------------------------------|
G|-I------------------3p2-----------------3p2-----------------3p2--------3p2-|
D|-D---5---5---3-5-3--------5---5---3-5-3-------5---5---3-5-3------3-5-3-----|
A|-G---5---5----------------5---5---------------5---5------------------------|
E|-E---3---3----------------3---3---------------3---3------------------------|
               * * *                * * *               * * *      * * *  
e|---------------------------------------------------------------------------|
B|-----------------------V-G-twice-only-1st-time-----------------------------|
G|---------3p2p0---------E---------------------5--x-3---5------5-3-x-3-2-----|
D|--3-5-3---------(3X)---R---5--5--x-3--5------5--x-3---5-(2X)-5-3-x-3-2-----|
A|-----------------------S---5--5--x-3--5-(2X)-3--x-1---3------3-1-x-1-0-----|
E|-----------------------E---3--3--x-1--3------------------------------------|
    * * *
e|---------------------------------------------------------------------------|
B|---------------------------------------------------------------------------|
G|--------------------------7-7-7-7--10-10-10-10-----------------------------|
D|---5\---x-3----5----------7-7-7-7--10-10-10-10-(2X)------------------------|
A|---5\---x-3----5---(2X)---5-5-5-5--8--8--8--8------------------------------|
E|---3\---x-1----3-----------------------------------------------------------|
     Guitar 1
e|------------------------------------------12h15-12h15-12h15----------------|
B|-bass-part-before-solo-------------S---------------------------------------|
G|-----------------------x-x-3-------O---------------------------------------|
D|-----------------------x-x-3-(4X)--L---------------------------------------|
A|----------------(8X)---x-x-1-------O---------------------------------------|
E|--1h3-3-3-3-------------------------------------------------------------|
    
e|----12h15-18-12h15-18------12h15--12h15--12h15--12h15-18--12h15-1-(2X)-----|
B|---------------------------------------------------------------------------|
G|---------------------------------------------------------------------------|
D|---------------------------------------------------------------------------|
A|---------------------------------------------------------------------------|
E|---------------------------------------------------------------------------|
     Guitar 2
e|---------------------------------------------------------------------------|
B|---------------------------------------------------------------------------|
G|-----x-x-3----x-x-3-----------------------------------3--------3-----------|
D|-----x-x-3----x-x-3-----------3-5----3-5---3-5----3-5-3----3-5-3-(2X)------|
A|-----x-x-1----x-x-1-----------3-5----3-5---3-5----3-5-1----3-5-1-----------|
E|------------------------------1-3----1-3---1-3----1-3------1-3-------------|
Guitar 1
e|---12h15-12h15-12h15-12h15-12h15-12h15--12h15-18-12h15-18---(2X)-----------|
B|---------------------------------------------------------------------------|
G|---------------------------------------------------------------------------|
D|---------------------------------------------------------------------------|
A|---------------------------------------------------------------------------|
E|---------------------------------------------------------------------------|
     Guitar 2
e|---------------------------------------------------------------------------|
B|---------------------------------------------------------------------------|
G|----------------------------------------------3--------3-------------------|
D|-----3-5-3-5----3-5-3-5-----3-5-3-5-------3-5-3----3-5-3---(2X)------------|
A|-----3-5-3-5----3-5-3-5-----3-5-3-5-------3-5-1----3-5-1-------------------|
E------1-3-1-3----1-3-1-3-----1-3-1-3-------1-3------1-3---------------------|
     on the 2nd time do the ending four times.
e|------------------------12h15-18-12h15-18-12h15-18-12h15-18----12h15--------|
B|--B-------------------------------------------------------------------------|
G|--A-------------------------------------------------------------------------|
D|--S-------------------------------------------------------------------------|
A|--S-------------------------------------------------------------------------|
E|-----1h3-3-3-3-(3X)-1-------------------------------------------------------|

e|----------------------------------------------------------------------------|
B|----------------------------------------------------------------------------|
G|-----------------------------3-------3---------3--------3-------------------|
D|-------------------------3-5-3---3-5-3-----3-5-3----3-5-3-------3-5---------|
A|-------------------------3-5-1---3-5-1-----3-5-1----3-5-1-------3-5---------|
E|-------------------------1-3-----1-3-------1-3------1-3---------1-3---------|
          Repeat intro while fading out.




************************************

| /   slide up
| \   slide down
| h   hammer-on
| p   pull-off
| ~   vibrato
| +   harmonic
| x   Mute note
| b   Bend
| pb  Pre-bend
| br  Bend release
| pbr Pre-bend release
| brb Bend release bend

************************************
Tap to rate this tab
 
# A B C D E F G H I J K L M N O P Q R S T U V W X Y Z