The Raconteurs - Salute Your Solution tab

Tuning is standard. Took me a while to figure it out but I got it. I didn't get the 
two measures because I can't distinguish the notes, so this starts from the third measure.

|---------------------------------|----------------------------------------|
|---------11p10p8-----------------|-11p10p8-10p8-10h11-11p10p8-10p8p-10h11-|
|---7h8h9---------9p8p7-9-------7-|----------------------------------------|
|-9-----------------------7h8h9---|----------------------------------------|
|---------------------------------|----------------------------------------|
|---------------------------------|----------------------------------------|

|--------------------------------|---------------------------------------|
|-11p10p8-10p8---8-11-11-10-8----|---------------------------------------|
|--------------9--------------9/-|-------------------------------------9-|
|--------------------------------|-------------------5h6----5h6-9-9h12---|
|--------------------------------|-----------5-5h7p5-----7---------------|
|--------------------------------|-0h3-5-5h7-----------------------------|

|-------------------|------------------------------------------------------|
|-------------------|-11p10p8-10p8-10/11--11p10p8-10p8-10/11--11p10p8-10p8-|
|----------12h13----|------------------------------------------------------|
|-12h14p12-------14-|------------------------------------------------------|
|-------------------|------------------------------------------------------|
|-------------------|------------------------------------------------------|

|----------------------------------|
|----10hb-10hb-10hb-10hb-10hb-12---|
|-9------------------------------9-|
|----------------------------------|
|----------------------------------|
|----------------------------------|
Tap to rate this tab
 
# A B C D E F G H I J K L M N O P Q R S T U V W X Y Z