Song name
# A B C D E F G H I J K L M N O P Q R S T U V W X Y Z

The Raconteurs - Consolers Of The Lonely tab

Song : Consoler of the Lonely - The Raconteurs

Album: Consolers of the Lonely

Tuning: Standard (E A D G B e)

Tabbed by : StormCrawler

I tried to learn this a few days ago but all the other tabs were missing notes.
I think I've fixed most of it.

This is my first tab so go easy :P


It's a pretty easy song. The only things that could be troublesome are the
Random time Changes.

Intro:
                              |-Pm--|             |-Pm--|       |-Pm----------|
e|----------------------------------------------------------------------------|
B|----------------------------------------------------------------------------|
G|--------3----3p2p0---------3--------3p2------3-----------3p2---------3p2----|
D|-----------------------------0-3-0---------------0-3-0---------0-3-0--------|
A|----------------------------------------------------------------------------|
E|--3------------------3---------------------/3-------------------------------|

   |-Pm--|
E|--------------------|
B|--------------------|
G|--------3p2p0-------|
D|--0-3-0--------5----|
A|---------------5----|
E|---------------3----|

Verse:


E|--------------------------------------------------------------------------|
B|--------------------------------------------------------------------------|
G|--------------------------------------------------------------------------|
D|--5-----x-3--5--------5-----x-3--5-------5-----x-3--5------5-----x-3--5---|
A|--5-----x-3--5--------5-----x-3--5-------5-----x-3--5------5-----x-3--5---|
E|--3-----x-1--3--------3-----x-1--3-------3-----x-1--3------3-----x-1--3---|

E|--------------------------------------------------------------------------|
B|--------------------------------------------------------------------------|
G|--5-----x-3--5--------5-----x-3--5--5-3-3-2-------------------------------|
D|--5-----x-3--5--------5-----x-3--5--5-3-3-2-5-----x-3--5------5-----x-3--5|
A|--3-----x-1--3--------3-----x-1--3--3-1-1-0-5-----x-3--5------5-----x-3--5|
E|--------------------------------------------3-----x-1--3------3-----x-1--3|

Chorus:
(Let these chords ring)

E|--------------------------------------------------------------------------|
B|--------------------------------------------------------------------------|
G|---3-----------------------3-----10----5--3-------------------------------|
D|---3----------3------------3-----10----5--3-------------------------------|
A|---5----------3------------5-----8-----3--1-------------------------------|
E|--------------1-----------------------------------------------------------|

Jack white part:

          |-Pm--|          |-Pm--|          |-Pm--|   |-Pm--|   |-Pm-----------|
E|-----------------------------------------------------------------------------| X3
B|---------------3p2--------------3p2--------------3p2-------3p2-------3p2p0---|
G|---------0-3-0------------0-3-0------------0-3-0-----0-3-0-----0-3-0---------|
D|--5--5-------------5--5-------------5--5-------------------------------------|
A|--5--5-------------5--5-------------5--5-------------------------------------|
E|--3--3-------------3--3-------------3--3-------------------------------------|

Verse:

E|--------------------------------------------------------------------------|
B|--------------------------------------------------------------------------|
G|-----------------------------------------5-----x-3--5------5-----x-3--5---|
D|--5-----x-3--5--------5-----x-3--5-------5-----x-3--5------5-----x-3--5---|
A|--5-----x-3--5--------5-----x-3--5-------3-----x-1--3------3-----x-1--3---|
E|--3-----x-1--3--------3-----x-1--3----------------------------------------|

E|--------------------------------------------------------------------------|
B|--------------------------------------------------------------------------|
G|-5-3--3-2-----------------------------------------------------------------|
D|-5-3--3-2---5------x-3--5------5------x-3--5------------------------------|
A|-3-1--1-0---5------x-3--5------5------x-3--5------------------------------|
E|------------3------x-1--3------3------x-1--3------------------------------|

Chorus here

Solo:


(Bass Part/intro to solo)
E|-----------------| X7
B|-----------------|
G|-----------------|
D|-----------------|
A|-----------------|
E|--0-3-3-3-3-3-3--|

(guitar at end of bass part)
E|----------------------|
B|----------------------|
G|----------------------|
D|---3---3---3---3------|
A|---3---3---3---3------|
E|---1---1---1---1------|

Guitar solo:

(I think Jack plays this an octave down and effects it to sound higher)


E|----------------------------------------18-------18---|
B|----18h20-----18h20-----18h20-----18h20----18h20------|
G|------------------------------------------------------|  Solo
D|------------------------------------------------------|
A|------------------------------------------------------|
E|------------------------------------------------------|
                                                        |
E|------------------------------------------------------|
B|------------------------------------------------------|
G|-----------------------------------------3--------3---|  Rythm
D|-----------------------------------------3--------3---|
A|-----------------------------------------1--------1---|
E|------------------------------------------------------|

E|----------------------------------------18-------18---|
B|----18h20-----18h20-----18h20-----18h20----18h20------|
G|------------------------------------------------------|  Solo
D|------------------------------------------------------|
A|------------------------------------------------------|
E|------------------------------------------------------|
                                                        |
E|------------------------------------------------------|
B|------------------------------------------------------|
G|-----------------------------------------3-------3----|  Rythm
D|----------3-5-------3-5-------3-5--------3-------3----|
A|----------3-5-------3-5-------3-5--------1-------1----|
E|----------1-3-------1-3-------1-3---------------------|

E|----------------------------------------18-------18---|
B|----18h20-----18h20-----18h20-----18h20----18h20------|
G|------------------------------------------------------|
D|------------------------------------------------------|  Solo
A|------------------------------------------------------|
E|------------------------------------------------------|
                                                        |
E|------------------------------------------------------|
B|------------------------------------------------------|
G|-----------------------------------------3-------3----|  Rythm
D|----------3-5-------3-5-------3-5--------3-------3----|
A|----------3-5-------3-5-------3-5--------1-------1----|
E|----------1-3-------1-3-------1-3---------------------|

E|----------------------------------------------------18-------18-----------|
B|----18h20-18h20---18h20-18h20---18h20-18h20---18h20----18h20--------------|
G|--------------------------------------------------------------------------|
D|----------------------------------------------------------------------Solo|
A|--------------------------------------------------------------------------|
E|--------------------------------------------------------------------------|
                                                                            |
E|--------------------------------------------------------------------------|
B|--------------------------------------------------------------------------|
G|-----------------------------------------------------3--------3------Rythm|
D|-----------3-5-3-5-------3-5-3-5-------3-5-3-5-------3--------3-----------|
A|-----------3-5-3-5-------3-5-3-5-------3-5-3-5-------1--------1-----------|
E|-----------1-3-1-3-------1-3-1-3-------1-3-1-3----------------------------|


E|----------------------------------------------------18-------18-------18--|
B|----18h20-18h20---18h20-18h20---18h20-18h20---18h20----18h20----18h20-----|
G|----------------------------------------------------------------------Solo|
D|--------------------------------------------------------------------------|
A|--------------------------------------------------------------------------|
E|--------------------------------------------------------------------------|
                                                                            |
E|---------------------------------------------------------------------Rythm|
B|--------------------------------------------------------------------------|
G|-----------------------------------------------------3--------3--------3--|
D|-----------3-5-3-5-------3-5-3-5-------3-5-3-5-------3--------3--------3--|
A|-----------3-5-3-5-------3-5-3-5-------3-5-3-5-------1--------1--------1--|
E|-----------1-3-1-3-------1-3-1-3-------1-3-1-3----------------------------|


E|----------18---|
B|----18h20------|
G|---------------|  Solo
D|---------------|
A|---------------|
E|---------------|
                 |
E|---------------|
B|---------------|
G|----------3----|  Rythm
D|----------3----|
A|----------1----|
E|---------------|

(Bass part again but only 3 times)


E|-------18-------18-------18-------18------------|
B|-20-20----20-20----20-20----20-20---------18h20-|
G|------------------------------------------------|
D|------------------------------------------------|
A|------------------------------------------------|
E|------------------------------------------------|
                                                  |
E|------------------------------------------------|
B|------------------------------------------------|
G|--------3--------3-------3--------3-------------|
D|--------3--------3-------3--------3-------------|
A|--------1--------1-------1--------1-------------|
E|------------------------------------------------|

Intro again.


Thats all there is to it:]

If you spot any mistakes, email them to me at Stromcrawlr@gmail.com
Tap to rate this tab
 
# A B C D E F G H I J K L M N O P Q R S T U V W X Y Z