Song name
# A B C D E F G H I J K L M N O P Q R S T U V W X Y Z

The Raconteurs - Steady As She Goes tab

-------------------------------------------------------------------------------
			  STEADY AS SHE GOES - THE RACONTEURS
-------------------------------------------------------------------------------
Tabbed by: KROoOKY
Email: KROoOKY@facebook.com

I dunno bout your country, but in switzerland all versions of this song have been blocked,
so I upload my interpretation.

For this song I use an MXR 108 Silicon Fuzz with Fuzz at 3:00, sounds quite good...

Tuning: Standard - E-A-D-G-B-e

Intro & Verse
									   Find yourself a girl...
				       .   .   .   .    .   .   .   .    .  .    .  .
e|-----------------|----------------|----------------|----------------|---------------|
B|3---3---2---0----|3---3---2---0---|----------------|----------------|---------------|
G|-----------------|----------------|--4-------2-----|--4-------2-----|--4-------2----|
D|-----------------|----------------|--4---4---2---2-|--4---4---2---2-|--4--4----2--2-|
A|-----------------|----------------|------4-------2-|------4-------2-|-----4-------2-|
E|-----------------|----------------|----------------|----------------|---------------|


Chorus:

Steady as she goes...

	    e|--------------------------------|--------------------------------|
	    B|--------------------------------|--------------------------------|
	    G|4---4---------4-2---2-----------|4---4---------4-2---2-----------|
	    D|4---4---4---4-4-2---2---2---2-4-|4---4---4---4-4-2---2---2---2-4-|
	    A|--------4---4-----------2---2-4-|--------4---4-----------2---2-4-|
	    E|--------------------------------|--------------------------------|

Verse:

    .  .    .  .
e|---------------|
B|---------------|
G|--4-------2----|
D|--4--4----2--2-|
A|-----4-------2-|
E|---------------|...

Chorus:

Steady as she goes...						    Well here we go a-

	    e|--------------------------------|--------------------------------|
	    B|--------------------------------|--------------------------------|
	    G|4---4---------4-2---2-----------|4---4---------4-2---2-----------|
	    D|4---4---4---4-4-2---2---2---2-4-|4---4---4---4-4-2---2---2---2-4-|
	    A|--------4---4-----------2---2-4-|--------4---4-----------2---2-4-|
	    E|--------------------------------|--------------------------------|

  gain...
e|---------------------------------|--------------------------------|
B|---------------------------------|--------------------------------|
G|.--------------------------------|-------------------------------.|
D| 5---5---5---5---7---7---7---7---|9---9---9---9---9---9---9---7---|
A|.5---5---5---5---7---7---7---7---|9---9---9---9---9---9---9---7--.|
E|---------------------------------|--------------------------------|

Well that's it. Enjoy!

P.S. this is my first tab, please e-mail me for comments, suggestions or questions.


************************************

| /   slide up
| \   slide down
| h   hammer-on
| p   pull-off
| ~   vibrato
| +   harmonic
| x   Mute note
| b   Bend
| pb  Pre-bend
| br  Bend release
| pbr Pre-bend release
| brb Bend release bend

************************************
Tap to rate this tab
 
# A B C D E F G H I J K L M N O P Q R S T U V W X Y Z