Song name
# A B C D E F G H I J K L M N O P Q R S T U V W X Y Z

The Raconteurs - Together tab

-------------------------------------------------------------------------------
                             Together - The Raconteurs
-------------------------------------------------------------------------------
Tabbed by:Tyboy19211
E-mail:tytymiller98@gmail.com

This is my first tab please bear with me

Tuning:Full step Down.DGCFAD

Intro/Verse
e|---------------------------------------------------------------------------|
B|---------------------------------------------------------------------------|
G|----------3--3-33--3-33--4--4----------------------------------------------|
D|---4--44--3--3-33--1-11--4--4----------------------------------------------| X6
A|---4--44--1--1-11--------2--2----------------------------------------------|
E|---2--22-------------------------------------------------------------------|
Chorus
e|------------------------------------------------------------------------------|
B|------------------------------------------------------------------------------|
G|---66666666----------66666666----------44444444-------------------------------|
D|---66666666-66666666-66666666-66666666-44444444-44444444-2-2-2-2--4444--------|
A|---44444444-66666666-44444444-66666666-22222222-44444444-2-2-2-2--4444--------|
E|------------44444444----------44444444----------22222222-0-0-0-0--2222--------|

e|---------------------------------------------------------------------------|
B|---------------------------------------------------------------------------|
G|---------------------------------------------------------------------------|
D|---2-2--4-44-44-4444-------------------------------------------------------|
A|---0-0--4-44-44-4444-------------------------------------------------------|
E|--------2-22-22-2222-------------------------------------------------------|
Variation of intro/Pre-Verse
e|---------------------------------------------------------------------------|
B|---------------------------------------------------------------------------|
G|--------3-33-3-3-3---------------3-33-3-3-3--------------------------------|
D|---4-44-3-33-1-1-1-444-222--4-44-3-33-1-1-1-444-2--------------------------|
A|---4-44-1-11-------222-000--4-44-1-11-------222-0--------------------------|
E|---2-22---------------------2-22-------------------------------------------|

The 3rd verse you play softly
Hope you like it

************************************
|()   play softly
| /   slide up
| \   slide down
| h   hammer-on
| p   pull-off
| ~   vibrato
| +   harmonic
| x   Mute note
| b   Bend
| pb  Pre-bend
| br  Bend release
| pbr Pre-bend release
| brb Bend release bend

************************************
Tap to rate this tab
 
# A B C D E F G H I J K L M N O P Q R S T U V W X Y Z