Song name
# A B C D E F G H I J K L M N O P Q R S T U V W X Y Z

The Raconteurs - Broken Boy Soldier tab

-------------------------------------------------------------------------------
			     THE RACONTEURS - Broken Boy Soldier
-------------------------------------------------------------------------------
Tabbed by: jxmxsc
Email: cott202@nailsea.n-somerset.sch.uk

Tuning: Standard

INTRO
e|-----------------------------------------------|
B|-----------------------------------------------|
G|----------------------11-----------------------|
D|-----9-----9--11--9----------------------------|
A|-----------------------------------------------|
E|-----------------------------------------------|

BRIDGE 1
e|-------12--------12--------12--------12--------|
B|----15---15---14---14---13---13---12---12------|
G|-----------------------------------------------|
D|-----------------------------------------------|
A|-----------------------------------------------|
E|-----------------------------------------------|

BRIDGE 2
e|-----------------------------------------------|
B|-----------------------------------------------|
G|-----------------------------------------------|
D|-----101010--999--777--555---------------------|
A|------8-8-8--777--555--333---------------------|
E|-----------------------------------------------|

MAIN RIFF
e|-----------------------------------------------|
B|-----------------------------------------------|
G|-----------------------------------------------|
D|----------5------------------------------------|
A|----7--7-----7--5--7-7-------------------------|
E|-----------------------------------------------|

| /  slide up
| \  slide down
| h  hammer-on
| p  pull-off
| ~  vibrato
| +  harmonic
| x  Mute note
This is my first tab, if you listan to the song enough you should be able 2 get the song order. Enjoy!
===============================================================================
Tap to rate this tab
 
# A B C D E F G H I J K L M N O P Q R S T U V W X Y Z