Song name
# A B C D E F G H I J K L M N O P Q R S T U V W X Y Z

The Raconteurs - Intimate Secretary tab

Help us improve GuitareTab! Take a short survey!
----------------------------------------------------------------------------
                     Intimate Secretary - Raconteurs
----------------------------------------------------------------------------
Tabbed by: Dave S.

Tuning: Standard


If you play along with the song it will sound a little off. The reason for 
this is because the guitars were tuned up 1/4 step.


Intro
                              (Repeat 2x)
e|-------------------------|-----------------------------------------------|
B|--12---------------------|---12----------11----------10----------12------|
G|--0----------------------|---0-----------0-----------0-----------0-------|
D|--12---------------------|---12----------12----------12----------12------|
A|--10---------------------|---10----------10----------10----------10------|
E|-------------------------|-----------------------------------------------|
       

(Repeat 2x)
e|-------------------------------------------------------------------------|
B|--12-12-12--12-------11-11-11--11-------10-10-10--10-------12-12-12--12--|
G|--0--0--0---0--------0--0--0---0--------0--0--0---0--------0--0--0---0---|
D|--12-12-12--12-------12-12-12--12-------12-12-12--12-------12-12-12--12--|
A|--10-10-10--10-------10-10-10--10-------10-10-10--10-------10-10-10--10--|
E|-------------------------------------------------------------------------|


Verse (Repeat 4x)
e|-------------------------------------------------------------------------|
B|-------------------------------------------------------------------------|
G|-------------------------------------------------------------------------|
D|--3/5---5---3/5---5---3/5---5---3/5---5----------------------------------|
A|--3/5---5---3/5---5---3/5---5---3/5---5----------------------------------|
E|--1/3---3---1/3---3---1/3---3---1/3---3----------------------------------|


Chorus (Repeat 2x)      

  Keyboard
e|----------------15----------------15----------8--------------8-----------|
B|----------15-------15----------15--------8-------8---------8-------------|
G|-------------16-------16----16--------------9------9-----9---------------|
D|-------17----------------17-----------10-------------10------------------|
A|-------------------------------------------------------------------------|
E|-------------------------------------------------------------------------|
 |
 |Guitar
e|-------3---3---3--3--3--3---3--3--3--0---0---0--0--0--0--0--0------------|
B|-------3---3---3--3--3--3---3--3--3--1---1---1--1--1--1--1--1------------|
G|-------0---0---0--0--0--0---0--0--0--0---0---0--0--0--0--0--0------------|
D|-------0---0---0--0--0--0---0--0--0--2---2---2--2--2--2--2--2------------|
A|-------2---2---2--2--2--2---2--2--2--3---3---3--3--3--3--3--3------------|
E|-------3---3---3--3--3--3---3--3--3--------------------------------------|


(Order for the rest of the song)

Verse (Repeat 4x)
Intro (Repeat 2x)
Verse (Repeat 4x)
Chorus (Repeat 4x)


| /  slide up
| \  slide down
| h  hammer-on
| p  pull-off
| ~  vibrato
| +  harmonic
| x  Mute note
===========================================================================
Related for Intimate Secretary tab