Guitaretab - guitar tabs
Song name
# A B C D E F G H I J K L M N O P Q R S T U V W X Y Z

The Raconteurs - Intimate Secretary Live tab

Intimate Secretary Live - The Raconteurs
Live at Maida Vale on BBC Radio 1

Intro/After Verse (G chord under intro)
|------------------------------------------------|
|------------------------------------------------|
|-------------------------0----------------------|
|--------0h2-0--------0h2----------0h2-0---------|
|----0h2----------0h2----------0h2--------0h2-0--|
|--3------------3------------3-------------------|
[ Tab from: http://www.guitaretab.com/t/the-raconteurs/86017.html ]
Riff
|-------------|
|-------------|
|----------0--|
|------0h2----|
|--0h2--------|
|-------------|

G chord played through verses with riff.

Under Solo/chorus (with distortion)
   G5       F#5      F5       G5
|--------------------------------------|
|--------------------------------------|
|--------------------------------------|
|--5-5-5-5--4-4-4-4--3-3-3-3--5-5-5-5--|
|--5-5-5-5--4-4-4-4--3-3-3-3--5-5-5-5--|
|--3-3-3-3--2-2-2-2--1-1-1-1--3-3-3-3--|
Related for Intimate Secretary Live tab
Advertisement will be closed in 10 seconds