Song name
# A B C D E F G H I J K L M N O P Q R S T U V W X Y Z

The Radiators - 7 Devils tab

-------------------------------------------------------------------------------
			     7 Devils - The Radiators
-------------------------------------------------------------------------------
Tabbed by: Kent

One from America's greatest band. This is accurate enough to jam out to, then again I'm 
little drunk... then again one should be if you're listenin' to the Rads.

Chords throughout: Em        C         D         Em

riff guy:
E|-7-7-7-7-7---7-7-7-7-7---7-7-7-7-7-------------------------------------------|
B|-7-7-7-8-8---7-7-7-8-8---7-7-7-8-8---7---7-8-8-------------------------------|
g|-------9-9---------9-9---------9-9---7-7-7-9-9-------------------------------|
d|---------------------------------------9-------------------------------------|
A|-----------------------------------------------------------------------------|
E|-----------------------------------------------------------------------------|


| /  slide up
| \  slide down
| h  hammer-on
| p  pull-off
| ~  vibrato
| +  harmonic
| x  Mute note
===============================================================================

http://theradiators.org/index3.php
Tap to rate this tab
 
# A B C D E F G H I J K L M N O P Q R S T U V W X Y Z