Guitaretab - guitar tabs
Song name
# A B C D E F G H I J K L M N O P Q R S T U V W X Y Z

The Radiators - Salty Jane tab

-------------------------------------------------------------------------------
			     Salty Jane - The Radiators
-------------------------------------------------------------------------------
Tabbed by: Kent

One from America's greatest band. This is accurate enough to jam out to, then again I'm
little drunk...then again one should be if you're listenin' to the Rads.

The Radiators doing what they do best -- floating on I and IV. Here, it's D to G.

after piano intro.....there is geetar (play around all over with the D G):

e|---2-2-3------------2-2-3--------------------------------------------------|
b|---3-3-0------------3-3-0--------------------------------------------------|
g|---2-2-0------------2-2-0--------------------------------------------------|
d|-0-0-0-0--2-0-----0-0-0-0--2-0---------------------------------------------|
a|-------2------2-0-------2------2-0-----------------------------------------|
E|-------3----------------3--------------------------------------------------|
(throughout basically)
[ Tab from: http://www.guitaretab.com/t/the-radiators/105663.html ]
[D] Salty [G] Jane, [D] down the [G] street you [D] come ag[G]ain.  [D]   [G]  (and so 
with the D G)
What am I gonna do, with a lion tamer like you?
***Seems like you vanished clean out of sight,
I come back here on an easter flight,
[A] Here you come again, [G] (no clue what he's saying)
Salty [D] Jane [G].....


*** second guitar plays octave dude (all about the wicky-wicky):
e|-10-x-x-10-x-x-10-x-x-10-x-x-10-10-10-10-----------------------------------|
b|---------------------------------------------------------------------------|
g|-7--x-x-7--x-x-7--x-x-7--x-x-7--7--7--7------------------------------------|
d|---------------------------------------------------------------------------|
a|---------------------------------------------------------------------------|
E|---------------------------------------------------------------------------|


| /  slide up
| \  slide down
| h  hammer-on
| p  pull-off
| ~  vibrato
| +  harmonic
| x  Mute note
===============================================================================
Related for Salty Jane tab
Advertisement will be closed in 10 seconds